Murzyn Mariusz

Murzyn Mariusz

Postprzez petlica » 27 kwi 2009, o 08:54

Numer 7 z VVV

Kod: Zaznacz cały

Acid Drinkers
Vile Vicious Vision
Murzyn Mariusz

by petlica



Riff A
  Both Guitars
E|-----------------|-----------------|-----------------|------------------|
H|-----------------|-----------------|-----------------|------------------|
G|-------7-6-------|-------10-9------|-------7-6-------|-------10-9-------|
D|-7---6-5-4-------|-7---6--8-7------|-7---6-5-4-------|-7---6--8-7-------|
A|-5---4-5-4-------|-5---4--8-7------|-5---4-5-4-------|-5---4--8-7-------|
E|-5---4-----------|-5---4-------12\-|-5---4-----------|-5---4------------|




  Guitar_1
E|-----------------|
H|-----------------|
G|-7~--9-10--------|
D|----------6~-----|
A|-----------------|
E|---------------9\|
 |                 |
 |Guitar_2         |
E|-----------------|
H|-----------------|
G|-7---9-10--------|
D|-x---x--x-6~-----|
A|-5---7--8-x------|
E|----------4~-----|



Riff B

  Both Guitars
E|-------------------------|-----------------------|
H|-------------------------|-----------------------|
G|-------------------------|-----------------------|
D|-----------------------3-|--------3-4-5----3-4-5-|
A|--------3-4-5----3-4-5---|-5-5--5--------5-------|
E|-5-5--5--------5---------|-----------------------|

E|-------------------------|-----------------------|
H|-------------------------|-----------------------|
G|-------------------------|-----------------------|
D|-----------------------3-|----3-4-5----3-4-5--5--|
A|--------3-4-5----3-4-5---|--5--------5--------3--|
E|-5-5--5--------5---------|-----------------------|


Riff C
  Guitar_1                                                  x5
E|-----------------------------|-----------------------------|
H|-----------------------------|-----------------------------|
G|-7-7-7-7-7-7-7p5-------------|-7-7-7-7-7-7-7p5-------------|
D|-----------------------------|-----------------------------|
A|-----------------------------|-----------------------------|
E|-----------------------------|-----------------------------|
 |                             |                             |
 |Guitar_2                     |                             |
E|-----------------------------|-----------------------------|
H|-----------------------------|-----------------------------|
G|-7-7-7-7-7-7-7p5-----------5-|-7-7-7-7-7-7-7p5-----------5-|
D|-----------------7p5-5h6h7---|-----------------7p5-5h6h7---|
A|-----------------------------|-----------------------------|
E|-----------------------------|-----------------------------|



  Guitar_1                                                 
E|-----------------------------|-----------------------------|
H|-----------------------------|-----------------------------|
G|-7-7-7-7-7-7-7p5-----------5-|-7-7-7-7-----7--7--10--------|
D|-----------------7p5-5h6h7---|-----------------------------|
A|-----------------------------|-----------------------------|
E|-----------------------------|-----------------------------|
 |                             |                             |
 |Guitar_2                     |                             |
E|-----------------------------|-----------------------------|
H|-----------------------------|-----------------------------|
G|-7-7-7-7-7-7-7p5-----------5-|-7-7-7-7-----7--7--10--------|
D|-----------------7p5-5h6h7---|-----------------------------|
A|-----------------------------|-----------------------------|
E|-----------------------------|-----------------------------|


Pre Solo

  Guitar_1
E|-----------------------------|-----------------------------|
H|-----------------------------|-----------------------------|
G|-----------------------------|-----------------------------|
D|-----------------------------|-----------------------------|
A|-1-0-1-0-1-0-1-0-1-0-1-0-1-0-|-1-0-1-0-1-0-1-0-1-0-1-0-1-0-|
E|-----------------------------|-----------------------------|
 |                             |                             |
 |Guitar_2                     |                             |
E|-----------------------------|-----------------------------|
H|-----------------------------|-----------------------------|
G|-----------------------------|-----------------------------|
D|-----------------------------|-----------------------------|
A|-----------------------------|-4-3-4-3-4-3-4-3-4-3-4-3-4-3-|
E|-----------------------------|-----------------------------|


  Guitar_2
E|-----------------------------|-----------------------------|
H|-----------------------------|-----------------------------|
G|-----------------------------|-----------------------------|
D|-----------------------------|-----------------------------|
A|-1-0-1-0-1-0-1-0-1-0-1-0-1-0-|-1-0-1-0-1-0-1-0-1-0-1-0-1-0-|
E|-----------------------------|-----------------------------|
  Guitar_2
E|-----------------------------|-----------------------------|
H|-----------------------------|-----------------------------|
G|-----------------------------|-----------------------------|
D|-----------------------------|-----------------------------|
A|-8-7-8-7-8-7-8-7-8-7-8-7-8-7-|-6-6-6-6-6-6-6-6-6-6-6\------|
E|-----------------------------|-----------------------------|


Solo (Background)

  Guitar_1                                                    x4
E|-----------------------------|-----------------------------|
H|-----------------------------|-----------------------------|
G|-4---------------------------|-----------------------------|
D|-4---------------------------|-3---------------------------|
A|-2---------------------------|-3---------------------------|
E|-----------------------------|-1---------------------------|
 |                             |                             |
 |Guitar_2                     |                             |
E|-----------------------------|-----------------------------|
H|-----------------------------|-----------------------------|
G|-4---------------------------|-----------------------------|
D|-4---4-----------------------|-1-1-1-1-1-1-1-1-1-1-1-1-1-1-|
A|-2-0-2-2-2-2-2-2-2-2-2-2-2-2-|-----------------------------|
E|-----------------------------|-----------------------------|


  Guitar_1
E|-----------------------------|-----------------------------|
H|-----------------------------|-----------------------------|
G|-----------------------------|-----------------------------|
D|-------------------------7---|-------------------7---------|
A|-5-----------------------5---|-2-0-2-0-2-0-2-0-2-5---------|
E|-----------------------------|-----------------------------|
 |                             |                             |
 |Guitar_2                     |                             |
E|-----------------------------|-----------------------------|
H|-----------------------------|-----------------------------|
G|-----------------------------|-----------------------------|
D|-------------------------7---|---------------------4-3~----|
A|-2-0-2-0-2-0-2-0-2-0-2-0-5---|-2-0-2-0-2-0-2-0-2-0---------|
E|-----------------------------|-----------------------------|


  Guitar_1
E|-----------------------------|-----------------------------|
H|-----------------------------|-----------------------------|
G|-----------------------------|-----------------------------|
D|-------------------------7---|-------------------5---------|
A|-2-0-2-0-2-0-2-0-2-0-2-0-5---|-2-----------5-----3---------|
E|-----------------------------|-0-----------3---------------|
 |                             |                             |
 |Guitar_2                     |                             |
E|-----------------------------|-----------------------------|
H|-----------------------------|-----------------------------|
G|-----------------------------|-----------------------------|
D|-----------------------------|-------------------5---------|
A|-2-0-2-0-2-0-2-0-2-0-2-0-5---|-2-----------5-----3---------|
E|-----------------------------|-0-----------3---------------|


       
E|-----------------------------|
H|-----------------------------|
G|-7-----9-----10--------------|
D|-x-----x------x-------6~-----|
A|-5-----7------8-------x------|
E|----------------------4~-----|


Ending

E|------------------------------------|---------------------------------|
H|------------------------------------|---------------------------------|
G|---------------------------------10-|-----------10-11-12-----10-11-12-|
D|-----------10-11-12-----10-11-12----|-12-12--12-----------12----------|
A|-12-12--12-----------12-------------|---------------------------------|
E|------------------------------------|---------------------------------|

E|------------------------------------|---------------------------------|
H|------------------------------------|---------------------------------|
G|---------------------------------10-|------10-11-12-----10-11-12-5----|
D|-----------10-11-12-----10-11-12----|--12-----------12-----------5----|
A|-12-12--12-----------12-------------|----------------------------3----|
E|------------------------------------|---------------------------------|






pozdrawiam
petlica
 
Posty: 100
Dołączył(a): 5 kwi 2009, o 10:35
Lokalizacja: Krk

Powrót do Vile Vicious Vision

Kto przegląda forum

Użytkownicy przeglądający ten dział: Brak zidentyfikowanych użytkowników i 0 gości

cron