Vile Vicious Vision

Vile Vicious Vision

Postprzez petlica » 27 kwi 2009, o 08:51

Fakt zgadza się.
Lecę dalej z VVV - Numer 3

Kod: Zaznacz cały
Acid Drinkers
Vile Vicious Vision
Vile Vicious Vision

by petlica



Intro

  Guitar_1
E|---------------------------------|---------------------------------|
H|---------------------------------|---------------------------------|
G|-9----7----9---------------------|-9----7----9---------------------|
D|-9----7----9---9----8------------|-9----7----9---9----8------------|
A|-7----5----7---9----8----2-2-2-2-|-7----5----7---9----8----2-2-2-2-|
E|---------------7----6----0-0-0-0-|---------------7----6----0-0-0-0-|
 |                         pm..... |                         pm..... |
 |Guitar_2                         |                                 |
E|---------------------------------|---------------------------------|
H|---------------------------------|---------------------------------|
G|-9----7----9---------------------|-9----7----9---------------------|
D|-9----7----9---9----8------------|-9----7----9---9----8------------|
A|-7----5----7---9----8----2-2-2-2-|-7----5----7---9----8----2-2-2-2-|
E|---------------7----6----0-0-0-0-|---------------7----6----0-0-0-0-|
                           pm.....                           pm.....


  Guitar_2
E|---------------------------------|---------------------------------|
H|---------------------------------|---------------------------------|
G|-9----7----9---------------------|-9----7----9---------------------|
D|-9----7----9---9-----------------|-9----7----9---9-----------------|
A|-7----5----7---9---------2-2-2-2-|-7----5----7---9---------2-2-2-2-|
E|---------------7----6----0-0-0-0-|---------------7----6----0-0-0-0-|
 |                    PH   pm..... |                    PH   pm..... |
 |Guitar_2                         |                                 |
E|---------------------------------|---------------------------------|
H|---------------------------------|---------------------------------|
G|-9----7----9---------------------|-9----7----9---------------------|
D|-9----7----9---9----8------------|-9----7----9---9----8------------|
A|-7----5----7---9----8----2-2-2-2-|-7----5----7---9----8----2-2-2-2-|
E|---------------7----6----0-0-0-0-|---------------7----6----0-0-0-0-|
                           pm.....                           pm.....



  Guitar_1
E|---------------------------------|---------------------------------|
H|---------------------------------|---------------------------------|
G|-9----7----9---------------------|-9----7----9---------------------|
D|-9----7----9---9----8------------|-9----7----9---9----8------------|
A|-7----5----7---9----8----2-2---2-|-7----5----7---9----8----2-2---2-|
E|-7----5----7---7----6----0-0---0-|-7----5----7---7----6----0-0---0-|
 |                         pm..... |                         pm..... |
 |Guitar_2                         |                                 |
E|---------------------------------|---------------------------------|
H|---------------------------------|---------------------------------|
G|-9----7----9---------------------|-9----7----9---------------------|
D|-9----7----9---9----8------------|-9----7----9---9----8------------|
A|-7----5----7---9----8----2-2---2-|-7----5----7---9----8----2-2---2-|
E|---------------7----6----0-0---0-|---------------7----6----0-0---0-|
                           pm.....                           pm.....


  Guitar_1
E|---------------------------------|---------------------------------|
H|---------------------------------|---------------------------------|
G|-9----7----9---------------------|-9----7----9---------------------|
D|-9----7----9---9----8------------|-9----7----9---9---8~------------|
A|-7----5----7---9----8----2-2---2-|-7----5----7---------------------|
E|-7----5----7---7----6----0-0---0-|-7----5----7---------------------|
 |                         pm..... |                                 |
 |Guitar_2                         |                                 |
E|---------------------------------|---------------------------------|
H|---------------------------------|---------------------------------|
G|-9----7----9---------------------|-9----7----9---------------------|
D|-9----7----9---9----8------------|-9----7----9---9---8h9p8h9p8h9p8-|
A|-7----5----7---9----8----2-2---2-|-7----5----7---------------------|
E|---------------7----6----0-0---0-|---------------------------------|
                           pm.....


                         

E|-----------------------------|
H|-----------------------------|
G|-------------------------9\--|
D|-9--8--------7-----------9\--|
A|-7--6--9--8--5--8--7--5--7\--|
E|-------7--6-----6--5--3------|


                             x3
E|-----------------------------|-----------------------------|
H|-----------------------------|-----------------------------|
G|-----------------------------|-----------------------------|
D|----------------------5--7---|-----9------9------9------9--|
A|----------------------3--5---|-----7------7------7------7--|
E|-3h5--0--0-0---0-0-0---------|-0-0----0-0----0-0----0-0----|
        pm............           pm.    pm.    pm.    pm.


                                                           x3
E|-----------------------------|-----------------------------|
H|-----------------------------|-----------------------------|
G|-----------------------------|-----------------------------|
D|----------------------5--7---|-----------------------------|
A|----------------------3--5---|-----------------------------|
E|-3h5--0--0-0---0-0-0---------|-3h5--0--0-0----0-0-0-0-0-0--|
        pm............                pm...................

E|-----------------------------|-----------------------------|
H|-----------------------------|-----------------------------|
G|-----------------------------|-----------------------------|
D|----------------------5--7---|-----------------------------|
A|----------------------3--5---|----------------7-7-7-7-7-7--|
E|-3h5--0--0-0---0-0-0---------|-3h5--0--0-0-----------------|
        pm............                pm....

Verse
                                                           x4
E|-----------------------------|-----------------------------|
H|-----------------------------|-----------------------------|
G|-----------------------------|-----------------------------|
D|-----------------------------|-----------------------------|
A|-------------3--3--4---------|----------3--3--4~-----------|
E|-3--3--6--6-----------3~-----|-3--6--6---------------------|
   pm.................  PH       pm...........  PH


Pre Ref

E|-------------------------------------|
H|-------------------------------------|
G|-6--6-6-6--6-6-6--6-6-6--6-6-6-6-6-6-|
D|-6--6-6-6--6-6-6--6-6-6--6-6-6-6-6-6-|
A|-4--4-4-4--4-4-4--4-4-4--4-4-4-4-4-4-|
E|-------------------------------------|


Ref

E|-----------------------------|------------------------------------|
H|-----------------------------|------------------------------------|
G|-----------------------------|------------------------------------|
D|-----------------------------|-2-------2---------2-------2--------|
A|-7--7--5--5--4----(4)\-------|-2--2-2--2--2-2-2--2--2-2--2--2-2-2-|
E|-5--5--3--3--2----(2)\-------|-0--0-0--0--0-0-0--0--0-0--0--0-0-0-|
                                    pm.     pm...     pm.     pm...

Solo (Background)
                                                           x2
E|-----------------------------|-----------------------------|
H|-----------------------------|-----------------------------|
G|-----------------------------|-----------------------------|
D|-----------------------------|-----------------------------|
A|-------------3--3--4---------|----------3--3--4~-----------|
E|-3--3--6--6-----------3~-----|-3--6--6---------------------|
   pm.................  PH       pm...........  PH


E|-----------------------------|-----------------------------|
H|-----------------------------|-----------------------------|
G|-----------------------------|-----------------------------|
D|-----------------------------|-----------------------------|
A|-------------5--5--6---------|----------5--5--6~-----------|
E|-5--5--8--8-----------5~-----|-5--8--8---------------------|
   pm.................  PH       pm...........  PH





petlica
 
Posty: 100
Dołączył(a): 5 kwi 2009, o 10:35
Lokalizacja: Krk

Powrót do Vile Vicious Vision

Kto przegląda forum

Użytkownicy przeglądający ten dział: Brak zidentyfikowanych użytkowników i 0 gości