WGFS Power

WGFS Power

Postprzez qbalzuo » 29 mar 2009, o 15:53

O kurde :lol: Nie spodziewałem się aż takiego efektu :D

WGFS Power

Kod: Zaznacz cały
Gtr I (E A D G B E)

Verse
  E E E E  E  E E E   E E E E E E E E E E E E E E E E E E E E
|-------------------|-----------------------------------------|---|
|-------------------|-----------------------------------------|---|
|-------------------|-----------------------------------------|---|
|-5-5-5-2-----------|-7-7-7-7-7-6-6-6-6-6-6-5-5-5-5-5-4-4-4-4-|---|
|-5-5-5-2-----------|-5-5-5-5-5-4-4-4-4-4-4-3-3-3-3-3-2-2-2-2-|---|
|-3-3-3-0--0--0-0-0-|-----------------------------------------|---|

                                         Riff 1
  E E E E E E E  E  E E E E E E   E E E E E E E E E E E E
|-------------------------------|-------------------------|----|
|-------------------------------|-------------------------|----|
|-------------------------------|-------------------------|----|
|-------------------------------|-------------------------|----|
|-------------2-----------------|-7-7-7-7-7-7p5---5-------|----|
|-3p0-5p0-3p0-0--0--0-0-0-0-0-0-|---------------7---7-5-7-|----|

Chorus
  E E  E E E E E E E E E E E  E  E
|----------------------------------|----|
|----------------------------------|----|
|-2-2------------------------------|----|
|-2-2--------------------3-3--2--5-|----|
|-0-0--0-3p0-5-0-3-0h3p0-3-3--2--5-|----|
|------------------------1-1--0--3-|----|


Większość riffów niezapisanych tutaj opiera się na modulacji riffu1, Acidzi grają go czasem oktawe wyżej i robią modulacje co półtonu w góre :P
qbalzuo
 
Posty: 20
Dołączył(a): 28 mar 2009, o 21:13

Powrót do Dirty Money, Dirty Tricks

Kto przegląda forum

Użytkownicy przeglądający ten dział: Brak zidentyfikowanych użytkowników i 0 gości