Cops Broke My Beer

Cops Broke My Beer

Postprzez qbalzuo » 28 mar 2009, o 21:17

Siema. Pierwszy post i pierwszy tab :P

Cops Broke My Beer.

Kod: Zaznacz cały

  Riff 1                                             Verse
    Gtr I
    E E E  E E E E E E E E E E E  E E  E      E  E  E E E E E E E E
||-----------------------------------------||-----------------------|
||o---------------------------------------o||-----------------------|
||--7-8-9----------------------------------||-7--9--9-9-9-9-9-9-8-7-|
||--7-8-9------------------5-6-7--7-9-10---||-7--9--9-9-9-9-9-9-8-7-|
||o-5-6-7------------------5-6-7--7-9-10--o||-5--7--7-7-7-7-7-7-6-5-|
||---------0-0-0-0-0-0-0-0-3-4-5--5-7--8---||-------0-0-0-0-0-------|


    E E E E E E E E E E E E E E E E E E E E  E E E E E E E E E E E E E E
||-----------------------------------------------------------------------||
||o---------------------------------------------------------------------o||
||--7-7-7-7-7----------------------------------------9-9-9-9-9-9-9-9-9-9-||
||--7-7-7-7-7---------------5-6-----------5--5-6-6-6-9-9-9-9-9-9-9-9-9-9-||
||o-5-5-5-5-5-7-6-5-5-5-5-5-3-4-7-7-7-7-7-3--3-4-4-4-7-7-7-7-7-7-7-7-7-7o||
||------------5-4-3-3-3-3-3-----5-5-5-5-5--------------------------------||

Chorus

  E E E E E E E E E  E E E E E E E E E E E E E E E E
|--------------------------------------------------0----|
|--------------------------------------------------0----|
|--------------------------------------------------9----|
|-2---------------5--5-5S7-7-2---------------------9----|
|-2---------------5--5-5S7-7-2-------5-4-----------7----|
|-0-0-3p0-3p0-0-0-3--3-3S5-5-0-0-0-0-----3-0-0-0-0------|


  E E E E E E E E   E E E E E E E E   E E E E  E E E   E E E E E
|-----------------|-----------------|----------------|--------------|
|-----------------|-----------------|----------------|--------------|
|-----------------|-----------------|-7-7-7----------|---7-7-7------|
|-2---------------|-8-8-8-7-7-2-----|-7-7-7----5-5-5-|---7-7-7------|
|-2---------------|-8-8-8-7-7-2-----|-5-5-5----5-3-5-|---5-5-5------|
|-0-0-3p0-3p0-0-0-|-6-6-6-5-5-0-0-0-|-------0--3-3-3-|-0-------0----|

Podklad pod solówe (pierwsze pare taktów)

    E E E E E E E E E E E
||-------------------------||----|
||o-----------------------o||----|
||-------------------------||----|
||-------------------------||----|
||o-2-3-4-4-4-4-4-4-4-4-4-o||----|
||--0-1-2-2-2-2-2-2-2-2-2--||----|


Stroić w D.

Nie sugerujcie się ilością tych ósemek :P Wystarczy grać troszeczkę na słuch :P

Solówki to raczej takie standardowe bluesowe zagrywki w pentatonice molowej D :P

Enjoy :)
qbalzuo
 
Posty: 20
Dołączył(a): 28 mar 2009, o 21:13

Powrót do Amazing Atomic Activity

Kto przegląda forum

Użytkownicy przeglądający ten dział: Brak zidentyfikowanych użytkowników i 0 gości