The Rust That I Feed

The Rust That I Feed

Postprzez petlica » 24 kwi 2009, o 10:22

Nie niestety nie mam w tego w GP, tak na szybko w notatniku pisałem. Resztę płyty mam że tak powiem w głowie i postaram się tez wrzucić, a później przestrajam się w dół bo sobie komplecik grubszych strun zakupiłem.

Jeszcze mała kosmetyka do riffu który wrzuciłeś. Brakowało mi tam brzęczącej pustej struny, i też chyba łatwiej się będzie grało.



Kod: Zaznacz cały

Intro do "The Rust That I Feed"

D||--------------------------|--------------------------|
A||--------------------------|--------------------------|
F||--------------------0-----|--------------------------|
C||--------7--------7-----7--|--------7--------7--------|
G||-----5--------5-----------|-----5--------5-----5-----|
C||--0--------0--------------|--8--------6-----------0--|


                                                       
--------------------------|--------------------------||
--------------------------|--------------------------||
--------------------0-----|-----------0--------------||
--------6--------6-----6--|--------6-----6-----------||
-----5--------5-----------|-----5-----------5--------||
--3--------3--------------|--3-----------------3--2--||



Pozdr
petlica
 
Posty: 100
Dołączył(a): 5 kwi 2009, o 10:35
Lokalizacja: Krk

Postprzez Mikele » 24 kwi 2009, o 10:27

petlica napisał(a):Jeszcze mała kosmetyka do riffu który wrzuciłeś. Brakowało mi tam brzęczącej pustej struny, i też chyba łatwiej się będzie grało.


Może być i w ten sposób, ja po prostu przyzwyczaiłem się do "dłubanych" riffów i rozpisuję wszystko, co rozkminię, po swojemu ;)
Obrazek
Avatar użytkownika
Mikele
 
Posty: 5967
Dołączył(a): 7 mar 2006, o 19:33
Lokalizacja: Wrocław i okolice

Postprzez vampirinho » 26 kwi 2009, o 22:25

teraz moja kosmetyka do Twojej wersji :mrgreen:


Kod: Zaznacz cały

Intro do "The Rust That I Feed"

D||--------------------------|---------------------------|
A||--------------------------|---------------------------|
F||--------------------0-----|---------------------------|
C||--------7--------7-----7--|--------7--------7---------|
G||-----5--------5-----------|-----5--------5-----5------|
C||--0--------0--------------|--8--------6----------6-0--|


                                                       
--------------------------|--------------------------||
--------------------------|--------------------------||
--------------------0-----|-----------0--------------||
--------6--------6-----6--|--------6-----6-----------||
-----5--------5-----------|-----5-----------5--------||
--3--------3--------------|--3-----------------3--2--||

'Nie jest dobrze, jak za długo jest dobrze'

Obrazek
vampirinho
 
Posty: 196
Dołączył(a): 1 lut 2009, o 00:55
Lokalizacja: Przemyśl

1

Postprzez yah » 13 cze 2009, o 19:04

Napewno jest kilka błędów, bo wirtuozem nie jestem i na razie nie potrafię dokładnie wszystkiego wychwycić ze słuchu :F. Intro skopiowałem od Mikele

Kod: Zaznacz cały
Acid Drinkers
Verses of Steel
The Rust That I Feed

Intro

D||--------------------------|--------------------------|
A||--------------------------|--------------------------|
F||--------------------------|--------------------------|
C||--------7--------7--5--7--|--------7--------7--------|
G||-----5--------5-----------|-----5--------5-----5-----|
C||--0--------0--------------|--8--------6-----------0--|


                                                       
--------------------------|--------------------------||
--------------------------|--------------------------||
--------------------------|--------------------------||
--------6--------6--5--6--|--------6--5--6-----------||
-----5--------5-----------|-----5-----------5--------||
--3--------3--------------|--3-----------------3--2--||

Przed zwrotką

|---------------------------------------------------------------|
|---------------------------------------------------------------|
|---------------------------------------------------------------|
|-0--0--1--1--0--0--1--1--0-0-1---1--1--4--4--1--1--4--4--1-1-3-|
|-0--0--1--1--0--0--1--1--0-0-1---1--1--4--4--1--1--4--4--1-1-3-|
|-0--0--1--1--0--0--1--1--0-0-1---1--1--4--4--1--1--4--4--1-1-3-|

Zwrotka

|------------------------------------------------------|
|------------------------------------------------------|
|------------------------------------------------------|
|-0-1-0---0-1-0---0-1-0-1-0---4-4-3---3-3-1------------|
|-0-1-0---0-1-0---0-1-0-1-0---4-4-3---3-3-1------------|
|-0-1-0---0-1-0---0-1-0-1-0---4-4-3---3-3-1--1111111-4-|

Refren

|------------------------------------------------------------------------|
|------------------------------------------------------------------------|
|------------------------------------------------------------------------|
|----------------------------6--------6--5--6----------6--5--6-----------|
|-------------------------5--------5----------------5-----------5--------|
|0000--0000--00-00-00--3--------3----------------3-----------------3--2--|

Jeszcze do breaku nie doszedłem :P, ale może kiedyś.
yah
 
Posty: 7
Dołączył(a): 28 gru 2008, o 16:07
Lokalizacja: Stare Kurowo

1

Postprzez meffcio » 21 cze 2009, o 18:44

Cześć Szatany, mój zaczęty tabek do The Rust That I Feed.
Niekoniecznie zgodny z oryginałem.
http://www.speedyshare.com/891257991.html
A swoją drogą, Ślimatora to trudno spisywać do GP :P
meffcio
 
Posty: 47
Dołączył(a): 19 cze 2009, o 15:12

1

Postprzez meffcio » 21 cze 2009, o 22:10

http://www.speedyshare.com/507499415.html
Troszkę zaktualizowana, niestety nie miałem czasu na więcej pracy

I mała informacja odnośnie pierwszego riffa na przesterze
http://www.speedyshare.com/452970672.html



Przeniosłem link z innego tematu - Mikele

'The rust that i feed' na chwilę obecną
http://www.speedyshare.com/674626994.html
meffcio
 
Posty: 47
Dołączył(a): 19 cze 2009, o 15:12

Re: The Rust That I Feed

Postprzez meffcio » 30 lis 2009, o 21:23

Reupload niedokończonego. Powodzenia.
Wywalcie te dwa wyższe posty ;)
Załączniki
the rust that i feed.gp5
(20.37 KiB) Pobrane 151 razy
Ostatnio edytowano 30 lis 2009, o 22:10 przez meffcio, łącznie edytowano 1 raz
meffcio
 
Posty: 47
Dołączył(a): 19 cze 2009, o 15:12

Re: The Rust That I Feed

Postprzez Gżeśó » 30 lis 2009, o 21:25

Czy mozesz to wrzucać nie w GP 5.2 tylko po 4? Każdemu to zadziała a Ty masz tylko dwa kkliknięcia więcej. Chce zobacdzyć jak bębny rozpisałeś.
Drumming is a way of the life, hit hard, play fast!
Avatar użytkownika
Gżeśó
 
Posty: 2339
Dołączył(a): 10 cze 2008, o 22:16
Lokalizacja: Zielona Góra / okolYce

Re: The Rust That I Feed

Postprzez meffcio » 30 lis 2009, o 22:08

Z tego co pamiętam, to mi pliki eksportowane z GP5 do GP4 nie chciały działać, ale proszę Cię bardzo :D
Oczywiście przejść niet, ale same rytmy (te, które w ogóle rozpisałem) chyba identycznie jak na albumie.
Załączniki
the rust that i feed.gp4
(12.4 KiB) Pobrane 173 razy
meffcio
 
Posty: 47
Dołączył(a): 19 cze 2009, o 15:12

Re: The Rust That I Feed

Postprzez Gżeśó » 30 lis 2009, o 22:25

A mi działa. Dzieki wielkie. Jak będę miał chwilę to mogę tam próbować doprowadzać do większej realności bębny.
Drumming is a way of the life, hit hard, play fast!
Avatar użytkownika
Gżeśó
 
Posty: 2339
Dołączył(a): 10 cze 2008, o 22:16
Lokalizacja: Zielona Góra / okolYce


Powrót do Verses of Steel

Kto przegląda forum

Użytkownicy przeglądający ten dział: Brak zidentyfikowanych użytkowników i 1 gość

cron