Silver Meat Machine

Silver Meat Machine

Postprzez yah » 29 gru 2008, o 18:16

Mogą być błędy, więc liczę na pomoc doświadczonych kolegów :D

Kod: Zaznacz cały
Acid Drinkers
Verses of Steel
Silver Meat Machine


Intro
                          x3
C# ||----------------------| |-------------------------|
G# ||----------------------| |-------------------------|
E  ||----------------------| |-------------------------|
B  ||---0-0-3-2--3-5--3-2--| |---0-0-3-2--3-5--3-2--0--|
F# ||---0-0-3-2--3-5--3-2--| |---0-0-3-2--3-5--3-2--0--|
B  ||---0-0-3-2--3-5--3-2--| |---0-0-3-2--3-5--3-2--0--|

                       x3
|----------------------| |-------------------------------------|
|----------------------| |-------------------------------------|
|----------------------| |-------------------------------------|
|---0-0-3-2--3-5--3-2--| |---0-0-3-2--3-5--3-2--0-0-0-0-0-0-0--|
|---0-0-3-2--3-5--3-2--| |---0-0-3-2--3-5--3-2--0-0-0-0-0-0-0--|
|---0-0-3-2--3-5--3-2--| |---0-0-3-2--3-5--3-2--0-0-0-0-0-0-0--| x2


Zwrotka
|---------------------------|
|---------------------------|
|---------------------------|
|---2-2-2---2-2-22---2-2-2--|
|---2-2-2---2-2-22---2-2-2--|
|---2-2-2---2-2-22---2-2-2--| tak kilka razy :p


Przed Refrenem         x3
|----------------------| |-------------------------------------|
|----------------------| |-------------------------------------|
|----------------------| |-------------------------------------|
|---0-0-3-2--3-5--3-2--| |---0-0-3-2--3-5--3-2--0-0-0-0-0-0-0--|
|---0-0-3-2--3-5--3-2--| |---0-0-3-2--3-5--3-2--0-0-0-0-0-0-0--|
|---0-0-3-2--3-5--3-2--| |---0-0-3-2--3-5--3-2--0-0-0-0-0-0-0--|

                       x3
|----------------------| |--------------------------------------------|
|----------------------| |--------------------------------------------|
|----------------------| |--------------------------------------------|
|---0-0-3-2--3-5--3-2--| |---0-0-3-2--3-5--3-2--0-0-0--0-0-00--0-0-0--|
|---0-0-3-2--3-5--3-2--| |---0-0-3-2--3-5--3-2--0-0-0--0-0-00--0-0-0--|
|---0-0-3-2--3-5--3-2--| |---0-0-3-2--3-5--3-2--0-0-0--0-0-00--0-0-0--|


Refren
|-----------------------|
|-----------------------|
|-----------------------|
|---2---5--3---7--5--2--|
|---2---5--3---7--5--2--|
|---2---5--3---7--5--2--| kilka razy
yah
 
Posty: 7
Dołączył(a): 28 gru 2008, o 16:07
Lokalizacja: Stare Kurowo

Postprzez Dasior » 29 gru 2008, o 19:15

Jak dla mnie:
Intro
x3

C# ||---------------------------|
G# ||---------------------------|
E ||-----------------------------|
B ||---0-0-3-2--0-0--7-6--2-3|
F# ||---0-0-3-2--0-0--7-6--2-3|
B ||---0-0-3-2--0-0--7-6--2-3|
Are you a Rebel?!
Avatar użytkownika
Dasior
 
Posty: 217
Dołączył(a): 27 sie 2007, o 19:52
Lokalizacja: Kraków


Powrót do Verses of Steel

Kto przegląda forum

Użytkownicy przeglądający ten dział: Brak zidentyfikowanych użytkowników i 1 gość