In A Black Sail Wrapped

In A Black Sail Wrapped

Postprzez Mikele » 12 sie 2008, o 18:47

Kod: Zaznacz cały
Acid Drinkers
Verses of Steel
In A Black Sail Wrapped

by Mikele

Intro (ostatni dźwięk w 2 takcie na flażolecie wymuszonym)
                                   x4                                 x4
C#||---------------------------------|---------------------------------|
G#||---------------------------------|---------------------------------|
E ||---------------------------------|---------------------------------|
B ||--3-2--2-2-2-2-2-2-5-3--3-3-5-6--|--3-2--------------5-3------5----|
F#||---------------------------------|--3-2--2-2-2-2-2-2-5-3--3-3-5-3~-|
B ||---------------------------------|--3-2--2-2-2-2-2-2-5-3--3-3-5----|


Podkład pod solo nr 1, drugi takt to uniwersalne przejście przed kolejnymi riffami, do umieszczenia w utwór ze słuchu ;)
                                 x3                                 x1                                                                   
|---------------------------------|----------------------------------|
|---------------------------------|----------------------------------|
|---------------------------------|----------------------------------|
|--3-2--------------5-3------5----|------------------5-5-3-3-2-2-3-3-|
|--3-2--2-2-2-2-2-2-5-3--3-3-5----|------------------5-5-3-3-2-2-3-3-|
|--3-2--2-2-2-2-2-2-5-3--3-3-5-6~-|--x-x-x-x-x-x-x-x-5-5-3-3-2-2-3-3-|


Riffy na zwrotkę
(jest tu pewien myk z biciem, bo jest sporo akcentowania na szesnastkach, choć główne dźwięki idą  w ósemkach, więc ilością wypisanych dźwięków się nie sugerujcie, jak zwykle do wyłapania ze słuchu ;) )
   
                                        x4                                 x4                                                                         
|------------------------------------------|---------------------------------|
|------------------------------------------|---------------------------------|
|------------------------------------------|---------------------------------|
|--2---------2---------5---------5---------|--3-2--------------5-3------5----|
|--2---------2---------5---------5---------|--3-2--2-2-2-2-2-2-5-3--3-3-5----|
|--2-2-2-2-2-2-2-2-2-2-5-3-3-3-3-5-3-3-3-3-|--3-2--2-2-2-2-2-2-5-3--3-3-5-6~-|


Pre-chorus i riff na refren, w  takcie po lewej ten sam  myk z biciem co poprzednio, całość grana na P.M.
                                          x1                             x4                                                                         
|------------------------------------------|------------------------------|
|------------------------------------------|------------------------------|
|------------------------------------------|------------------------------|
|------------------------------------------|--3--3--5-6--2----------------|
|------------------------------------------|--3--3--5-6--2----------------|
|--0-0-0-0-0-0-0-0-0-0-0-0-0-0-0-0-0-0-0-0-|--3--3--5-6--2--2-2-2-2-2-2-2-|


Riff po refrenie i break (break wykorzystany też jako riff na outro)

                          x1                                                           
|--------------------------|--------------------------------|
|--------------------------|--------------------------------|
|--------------------------|--------------------------------|
|--5-5---3-3---6-6---2-2---|--------------------------------|
|--5-5---3-3---6-6---2-2---|--------------------------------|
|--5-5---3-3---6-6---2-2---|--0-0-0-0-1/-13/-0-0-0-0-1/-13/-|


Riff pod solo nr 1, pierwsze noty na dźwięki D (próg 3) i E (próg 5) jako akcent, bez bicia, najpierw Hammer On, a później Slide
                                           
|------------------------------------------||
|------------------------------------------||
|------------------------------------------||
|--------------------------------3-3-5-5-6-||
|--------------------------------3-3-5-5-6-||
|--0-0-0-0-0-0-0-0-0-0-0-0-0-0-0-3-3-5-5-6-||


Solówek tradycyjnie nie ruszam, bom leń ;) Tab robiony na szybko, więc jak jakie uwagi, to się nie krępować i nawijać.
Obrazek
Avatar użytkownika
Mikele
 
Posty: 5967
Dołączył(a): 7 mar 2006, o 19:33
Lokalizacja: Wrocław i okolice

1

Postprzez meffcio » 29 cze 2009, o 19:54

'In a black sail wrapped', tylko że też niedokończone.
http://www.speedyshare.com/910911138.html
Ostatnio edytowano 30 lip 2009, o 11:12 przez meffcio, łącznie edytowano 1 raz
meffcio
 
Posty: 47
Dołączył(a): 19 cze 2009, o 15:12

Re: In A Black Sail Wrapped

Postprzez szowiór666 » 26 lip 2009, o 14:45

Niewiecie czasem czy są tabulatury acid na bas??
Obrazek
szowiór666
 
Posty: 1472
Dołączył(a): 20 kwi 2009, o 22:18
Lokalizacja: KwasLand

Re: In A Black Sail Wrapped

Postprzez Kred » 26 lip 2009, o 14:57

Bas jedziesz najczęściej takimi dźwiękami, jakie ciągnie rytmiczna.
Kred
 
Posty: 8439
Dołączył(a): 1 lis 2008, o 05:36

Re: In A Black Sail Wrapped

Postprzez meffcio » 30 lip 2009, o 11:08

Titi się nie przemęcza w studiu ;]
meffcio
 
Posty: 47
Dołączył(a): 19 cze 2009, o 15:12

Re: In A Black Sail Wrapped

Postprzez Kred » 30 lip 2009, o 19:09

Heh, wszak to jego stwierdzenie, że na początku grał tysiąc dźwięków na płycie, potem stwierdził, że w prostocie siła, a jego marzeniem jest nagrać całą płytę na jednym dźwięku :mrgreen:
Kred
 
Posty: 8439
Dołączył(a): 1 lis 2008, o 05:36

Re: In A Black Sail Wrapped

Postprzez meffcio » 30 lis 2009, o 21:20

Reupload. Zajmij się ktoś resztą.
Załączniki
in a black sail wrapped.gp5
(13.66 KiB) Pobrane 214 razy
in a black sail wrapped.gp4
(8.06 KiB) Pobrane 119 razy
meffcio
 
Posty: 47
Dołączył(a): 19 cze 2009, o 15:12

Re: In A Black Sail Wrapped

Postprzez Laser » 1 gru 2009, o 01:48

ty meffcio dobry jesteś w te klocki :wink: zajebiście radzisz sobie z rozpiską bębnów - aż chce się tego słuchać.. aż chce się ćwiczyć na gitarze :wink:dzięki!
"Ciotkę parowozu przetaczać na sznyclach." - Stanisław Lem
Avatar użytkownika
Laser
 
Posty: 3229
Dołączył(a): 7 mar 2006, o 23:57
Lokalizacja: Szczecin


Powrót do Verses of Steel

Kto przegląda forum

Użytkownicy przeglądający ten dział: Brak zidentyfikowanych użytkowników i 1 gość

cron