We Died Before We Start To Live

We Died Before We Start To Live

Postprzez Mikele » 10 lip 2008, o 09:50

No to Metassie kawał dobrej roboty, bo medley uroczy :)

piosenka o poranku:

Kod: Zaznacz cały
Acid Drinkers
Verses of Steel
We Died Before We Start To Live

by Mikele

Riff główny, walcowaty ;)

C#||--------------------------|-------------------------|
G#||--------------------------|-------------------------|
E ||--------------------------|-------------------------|
B ||--------------------------|-------------------------|
F#||-----5--5--5--5--6-----5--|-------------------------|
B ||--0-----------------0-----|----0--8--0--7--0--3--5--|


Riff 2: (z kopytkiem)
                                                                           
|--------------------------|-------------------------|
|--------------------------|-------------------------|
|--------------------------|-------------------------|
|--------------------------|-------------------------|
|--0--7--7--7--7--8--0--7--|----0--5--0--3--0--2--3--|
|--0--7--7--7--7--8--0--7--|----0--5--0--3--0--2--3--|


Riff na refren:

 "...angry night..."
                                                                             
|-----------------------|-------------------------|-----------------------|-------------------------|
|-----------------------|-------------------------|-----------------------|-------------------------|
|-----------------------|-------------------------|-----------------------|-------------------------|
|-----------------------|-------------------------|-----------------------|-------------------------|
|--5~-------5--6--3--5~-|-------------------------|--5~-------5--6--3--5~-|-------------------------|
|-----------------------|----0--8--0--7--0--3--5--|-----------------------|----0--8--0--7--0--3--5--|


"...morning was so stiff..." i "...my uncommon junkie..."
                                                               
|-------------------|------------------|
|-------------------|------------------|
|-------------------|------------------|
|--0----------------|------------------|
|--0----------------|------------------|
|--0----------------|------------------|


"...we died before we start to live..."
                                                                             
|------------------------|-------------------------|------------------------|-------------------------|
|------------------------|-------------------------|------------------------|-------------------------|
|------------------------|-------------------------|------------------------|-------------------------|
|------------------------|-------------------------|------------------------|-------------------------|
|--0--3----3--3----3--3--|----3--3--3--3--4--4--4--|--0--3----3--3----3--3--|----3--3--3--3--4--4--4--|
|--0--3----3--3----3--3--|----3--3--3--3--4--4--4--|--0--3----3--3----3--3--|----3--3--3--3--4--4--4--|


Break: (ostatni takt obowiązkowo na slide'ach, uderzenia na parzyste dźwięki)
                                                                             
|-------------------------|-------------------------|-------------------------|--------------------------||
|-------------------------|-------------------------|-------------------------|--------------------------||
|-------------------------|-------------------------|-------------------------|--------------------------||
|-------------------------|-------------------------|-------------------------|--------------------------||
|--0--1----1--1--1--1--1--|--0--1----1--1--1--1--1--|--0--1----1--1--1--1--1--|--0/-1/-3/-4--4/-3--3\-1--||
|--0--1----1--1--1--1--1--|--0--1----1--1--1--1--1--|--0--1----1--1--1--1--1--|--0/-1/-3/-4--4/-3--3\-1--||



edit: poprawiony refren i dodałem riffa na break, ...jednak jeszcze dość wczesna pora i kawa zacznie działać dopiero za jakiś czas ;)
Ostatnio edytowano 10 lip 2008, o 10:15 przez Mikele, łącznie edytowano 1 raz
Obrazek
Avatar użytkownika
Mikele
 
Posty: 5967
Dołączył(a): 7 mar 2006, o 19:33
Lokalizacja: Wrocław i okolice

Postprzez Mikele » 10 lip 2008, o 11:54

w sumie racja ;)

...swoją drogą, grane obie te interpretacje na raz dają miło dla ucha efekt ;)
Obrazek
Avatar użytkownika
Mikele
 
Posty: 5967
Dołączył(a): 7 mar 2006, o 19:33
Lokalizacja: Wrocław i okolice

Re: We Died Before We Start To Live

Postprzez petlica » 25 sty 2014, o 01:49

Lekko przerobiony tab

Kod: Zaznacz cały
[size=85]Acid Drinkers
Verses of Steel
We Died Before We Start To Live



Main Riff
|-------------------------|------------------------|
|-------------------------|------------------------|
|-------------------------|------------------------|
|-------------------------|------------------------|
|-------------------------|------------------------|
|-0--12-12-12-12-13-0-12--|--0--8--0--10--0--7--8--|


Riff B                                                                 
|-------------------------|----------------------|
|-------------------------|----------------------|
|-------------------------|----------------------|
|-------------------------|----------------------|
|-0--7--7--7--7--8--0--7--|----------------------|
|-0--7--7--7--7--8--0--7--|--0--3--0--5--0--3p0--|



 "...angry night..."      "...morning was so stiff..." i "...my uncommon junkie..."
 Gtr1
|---------------------------------|---------------------------------|---------------|
|---------------------------------|---------------------------------|---------------|
|---------------------------------|---------------------------------|---------------|
|-5----/--------------------------|-8---/-------------3--/----------|-0-----0----0--|
|-5---/---------------------------|-8--/--------------3-/-----------|-0-----0----0--|
|-5--/----------------------------|-8-/---------------3/------------|-0-----0----0--|
|                                 |                                 |               |
|Gtr2                             |                                 |               |
|---------------------------------|---------------------------------|---------------|
|---------------------------------|---------------------------------|---------------|
|-7---7h8p7----7------------------|-7---7h8p7----7------------------|---------------|
|-----------10-----0-8-0-10-0-7-8-|-----------10-----0-8-0-10-0-7-8-|-0-----0----0--|
|---------------------------------|---------------------------------|-0-----0----0--|
|---------------------------------|---------------------------------|-0-----0----0--|


"...we died before we start to live..."
                                                                             
|----------------------|----------------------|
|----------------------|----------------------|
|----------------------|----------------------|
|----------------------|----------------------|
|----------------------|----------------------|
|-0-3--3-3--3-3--4-4-4-|-0-3--3-3--3-3--4-4-4-|


Break
|----------------|----------------|----------------|---------------------|
|----------------|----------------|----------------|---------------------|
|----------------|----------------|----------------|---------------------|
|----------------|----------------|----------------|---------------------|
|---1--1-1-1-1-1-|---1--1-1-1-1-1-|---1--1-1-1-1-1-|---------------------|
|-0-1--1-1-1-1-1-|-0-1--1-1-1-1-1-|-0-1--1-1-1-1-1-|-1/3--3/4--4\3--3\1--|


Riff 2A
|-------------------------|------------------------|
|-------------------------|------------------------|
|-------------------------|------------------------|
|----12-12-12-12-13---12--|-----8-----10-----7--8--|
|----12-12-12-12-13---12--|-----8-----10-----7--8--|
|-0--12-12-12-12-13-0-12--|--0--8--0--10--0--7--8--|[/size]



pozdr
petlica
petlica
 
Posty: 100
Dołączył(a): 5 kwi 2009, o 10:35
Lokalizacja: Krk


Powrót do Verses of Steel

Kto przegląda forum

Użytkownicy przeglądający ten dział: Brak zidentyfikowanych użytkowników i 1 gość