Blues Beatdown

Blues Beatdown

Postprzez Mikele » 8 lip 2008, o 21:50

A tak przy okazji, korzystając z amoku spowodowanego VoS:

Kod: Zaznacz cały
Acid Drinkers
Verses of Steel
Blues Beatdown

by Mikele

Intro:

C#||----------------------------------|----------------------------------|
G#||----------------------------------|----------------------------------|
E ||----------------------------------|----------------------------------|
B ||--0-------0-------0-------0-------|--3-------0-------0-------0-------|
F#||--0-------0-------0-------0-------|--3-------0-------0-------0-------|
B ||--0----x--0----x--0----x--0----x--|--3----x--0----x--0----x--0----x--|


                                                                     
|----------------------------------|----------------------------------|
|----------------------------------|----------------------------------|
|----------------------------------|----------------------------------|
|--6-------0-------0-------0-------|--5--6--6--5--6--6--5--6--6--3----|
|--6-------0-------0-------0-------|--5--6--6--5--6--6--5--6--6--3----|
|--6----x--0----x--0----x--0----x--|--5--6--6--5--6--6--5--6--6--3----|


Riff na zwrotkę:
                                                                       
|----------------------------------|------------------------------------|
|----------------------------------|------------------------------------|
|----------------------------------|------------------------------------|
|--7-------5-------3-------3-------|--7---------------------------------|
|--5-------3-------3-------3-------|--5----0--0--0--0--0----0--0--0--0--|
|--7----x--5----x--3----x--3----x--|--7----0--0--0--0--0----0--0--0--0--|

Break nr 1:
                                                                           
|-------------------------------------|-------------------------------------|
|-------------------------------------|-------------------------------------|
|-------------------------------------|-------------------------------------|
|-------------------------------------|-------------------------------------|
|----------------------3--------------|----------------------3--------------|
|--2----2--3--2--3--2-----2--3--2--3--|--2----2--3--2--3--2-----2--3--2--3--|


                                                                         
|-------------------------------------|----------------------------------|
|-------------------------------------|----------------------------------|
|-------------------------------------|----------------------------------|
|-------------------------------------|----------------------------------|
|----------------------3--------------|--5--6--6--5--6--6--5--6--6--3----|
|--2----2--3--2--3--2-----2--3--2--3--|--5--6--6--5--6--6--5--6--6--3----|


Pre-horus:

Gitara1: (x4)                                                                                                   
|----------------------------------|
|----------------------------------|
|----------------------------------|
|--------------------------3-------|
|--5-------3-------5---------------|
|-------0-------0-------0-------0--|

Gitara2: (takty 3 i 4)
|----------------------------------|
|----------------------------------| 
|--------------------------2-------|
|--3-------2-------3---------------|
|----------------------------------|
|-------0-------0-------0-------0--|
                                                           

Refren:
|-------------------|-------------------|-------------------|----------------------------------|
|-------------------|-------------------|-------------------|----------------------------------|
|-------------------|-------------------|-------------------|----------------------------------|
|--0----------------|--5----------------|--3----------------|--5--6--6--5--6--6--5--6--6--3----|
|--0----------------|--3----------------|--3----------------|--5--6--6--5--6--6--5--6--6--3----|
|--0----------------|--5----------------|--3----------------|--5--6--6--5--6--6--5--6--6--3----|


                                                                           
|-------------------|-------------------|-------------------|----------------------------------|
|-------------------|-------------------|-------------------|----------------------------------|
|--7----------------|--9----------------|-------------------|----------------------------------|
|--7----------------|--9----------------|--7----------------|--5--6--6--5--6--6--5----3--------|
|--5----------------|--7----------------|--7----------------|--5--6--6--5--6--6--5----3--------|
|--0----------------|-------------------|--7----------------|--5--6--6--5--6--6--5----3--------|


Break nr2: (przed zwolnieniem)
                                                                             
|----------------------|----------------------|
|----------------------|----------------------|
|--7----5----2---------|----------------------|
|--7----5----2----5----|--3----5----3----0----|
|--5----3----0----5----|--3----5----3----0----|
|-----------------5----|--3----5----3----0----|


Riff na zwolnieniu:
                                                                             
|--------------------------|--------------------------|--------------------------|--------------------------|
|--------------------------|--------------------------|--------------------------|--------------------------|
|--5--5--7--7--7-----------|--5--5--7--7--7-----------|--2--2--3--3--3-----------|--3--3--5--5--5-----------|
|--5--5--7--7--7-----------|--5--5--7--7--7-----------|--2--2--3--3--3-----------|--3--3--5--5--5-----------|
|--3--3--5--5--5--0--0--0--|--3--3--5--5--5--0--0--0--|--0--0--1--1--1--0--0--0--|--1--1--3--3--3--0--0--0--|
|-----------------0--0--0--|-----------------0--0--0--|-----------------0--0--0--|-----------------0--0--0--|

Riff na outro: (gitara1)
                                                                             
|-----------------------|------------------------|------------------------|-------------------------|
|-----------------------|------------------------|------------------------|-------------------------|
|--7--7--5--5--7~-------|--7--7--5--7--5---------|------------------------|-------------------------|
|-----------------------|-------------------7----|--3--3--5--6----5----3--|--5--3-----3-------------|
|-----------------------|------------------------|------------------------|--------5-----5--3--5~---|
|-----------------------|------------------------|------------------------|-------------------------|

                                                                         
Riff na outro: (gitara2)
                                                                               
|-----------------------|-------------------------|-----------------------------|--------------------------------||
|--6--6--5--5--6--------|--6--6--5--6--5----------|--------------9--------------|--------------------------------||
|-----------------------|-------------------10~---|--10--10--12-------12----10--|--12--10------10----------------||
|-----------------------|-------------------------|-----------------------------|----------12------12--10--12----||
|-----------------------|-------------------------|-----------------------------|--------------------------------||
|-----------------------|-------------------------|-----------------------------|--------------------------------||



Riff pod solo właściwe, którego nie rozkminiam, bo za krótki jestem ;) to riff na zwrotkę grany najpierw standardowo w tonacji B (tak jak w tabie), a później w tonacji C (2 próg) i D (3 próg).

...That's all folks! Bawcie się grzecznie ;)
Obrazek
Avatar użytkownika
Mikele
 
Posty: 5967
Dołączył(a): 7 mar 2006, o 19:33
Lokalizacja: Wrocław i okolice

Re: Blues Beatdown

Postprzez meffcio » 30 lis 2009, o 18:40

http://www.speedyshare.com/files/19550809/blues_beatdown.gp5
Jak wszystkie moje - niedokończony. Nie dość, że gitary mogłyby być nagranie... wyraźniej, to jeszcze jako perfekcjonista muszę jako tako spisywać także gary, na wypadek jakby ktoś chciał puścić sobie podkład by grać samemu (i bas by się przydało spisać, co? :P), a to doprowadza mnie czasem do szewskiej pasji xd

W każdym razie, chyba wszystkie niezbędne dźwięki są, reszta to te same riffy grane inaczej albo w innych tonacjach, więc macie jako taki obraz na cały utwór.
meffcio
 
Posty: 47
Dołączył(a): 19 cze 2009, o 15:12

Re: Blues Beatdown

Postprzez Gżeśó » 30 lis 2009, o 18:48

Skkonwertuj go w GP4 i wrzuć to ja w prezncie Laserowi spróbuje bębny rozpisać.
Drumming is a way of the life, hit hard, play fast!
Avatar użytkownika
Gżeśó
 
Posty: 2339
Dołączył(a): 10 cze 2008, o 22:16
Lokalizacja: Zielona Góra / okolYce

Re: Blues Beatdown

Postprzez Laser » 30 lis 2009, o 18:55

Gżeśó napisał(a):Skkonwertuj go w GP4 i wrzuć to ja w prezncie Laserowi spróbuje bębny rozpisać.
no już sciągnałem są i bębny - trzeba tam "troche" rzeczy dopisać.. i co nieco poprawić.. ale nie jest tragicznie :wink: może i ja przysiąde jak bede w dobrym nastroju :)
"Ciotkę parowozu przetaczać na sznyclach." - Stanisław Lem
Avatar użytkownika
Laser
 
Posty: 3229
Dołączył(a): 7 mar 2006, o 23:57
Lokalizacja: Szczecin

Re: Blues Beatdown

Postprzez Gżeśó » 30 lis 2009, o 19:11

A to jak są bębny to się nie męczę:P
Drumming is a way of the life, hit hard, play fast!
Avatar użytkownika
Gżeśó
 
Posty: 2339
Dołączył(a): 10 cze 2008, o 22:16
Lokalizacja: Zielona Góra / okolYce

Re: Blues Beatdown

Postprzez meffcio » 30 lis 2009, o 20:22

Laser napisał(a):trzeba tam "troche" rzeczy dopisać.. i co nieco poprawić..

W kwestii gitar czy bębnów? Bo riffów jestem, jak teraz patrzę, na 99% pewien, tak jak i bębnów, z tym że w bębnach nie robiłem przejść, i nie zwracałem za bardzo uwagi na talerze, więc może i racja ;) Pod koniec też trochę nabroiłem, fakt :P Ale przyznasz, że dość zgodnie z oryginałem ;]

[EDIT]
Jak chcecie sobie podopisywać, to pokopiowałem prawie całą resztę riffów jako tako. Powodzenia.
Załączniki
blues beatdown.gp5
W GP5
(28.8 KiB) Pobrane 226 razy
blues beatdown.gp4
W GP4
(18.64 KiB) Pobrane 153 razy
meffcio
 
Posty: 47
Dołączył(a): 19 cze 2009, o 15:12

Re: Blues Beatdown

Postprzez Glock » 1 gru 2009, o 13:32

Moze ktos mi powiedziec jak laikowi jak zagrac ta szybka zagrywke na 65 strunie na poczatku.Jest to dla mnie dosc trudne.
Glock
 
Posty: 175
Dołączył(a): 12 sty 2009, o 17:43

Re: Blues Beatdown

Postprzez Gżeśó » 1 gru 2009, o 17:12

Potrzebuje ktoś dokładniej rozpisane bębny?
Drumming is a way of the life, hit hard, play fast!
Avatar użytkownika
Gżeśó
 
Posty: 2339
Dołączył(a): 10 cze 2008, o 22:16
Lokalizacja: Zielona Góra / okolYce

Re: Blues Beatdown

Postprzez meffcio » 1 gru 2009, o 18:27

Glock, na to chyba nie ma rady. Po prostu zaczynaj grać powoli, i z czasem przyspieszaj, o ile w poprzednim tempie dojdziesz do perfekcji. A jeśli chodzi o takie inne porady, to ja 565 i 353 nie kostkuję, tylko hammer-on'a i pull-off'a robię.

Gżeśó, każdy? :P Wiesz, dobrze jest mieć same bębny jako podkład do nagrania np. własnego covera na YouTube.
meffcio
 
Posty: 47
Dołączył(a): 19 cze 2009, o 15:12

Re: Blues Beatdown

Postprzez Beavis » 1 gru 2009, o 18:39

@meffcio to jest kompletny tab w GP5...czy nie :?: Sorry pijany jestem :wink:
I Mean Acid Do Ya Like It ?

Obrazek

Terminator czasem musi też odpocząć

I'm a Rocker & Ace Of Spades
Avatar użytkownika
Beavis
 
Posty: 4733
Dołączył(a): 13 cze 2008, o 16:42
Lokalizacja: Sosnowiec

Re: Blues Beatdown

Postprzez meffcio » 1 gru 2009, o 18:51

Beavis, to jest niekompletny tab w GP5 :P Riffy są, znaczna większość. Tzn. riffy właściwie wszystkie.
meffcio
 
Posty: 47
Dołączył(a): 19 cze 2009, o 15:12

Re: Blues Beatdown

Postprzez Gżeśó » 1 gru 2009, o 19:22

meffcio napisał(a):[

Gżeśó, każdy? :P Wiesz, dobrze jest mieć same bębny jako podkład do nagrania np. własnego covera na YouTube.


Jak bedę miał chwilę to się pobawię, zrobiłem na razie te przejścia w intro. Fakt jest taki, że nawet tych prostych przejść nie jest łatwo zrobić.
A, jeszcze jedno. Tam gdzie są przejścia będziesz musiał do robić te wybrzmienia i slide'y jak w utworze, bo na pusto brzmi chujowo.
Drumming is a way of the life, hit hard, play fast!
Avatar użytkownika
Gżeśó
 
Posty: 2339
Dołączył(a): 10 cze 2008, o 22:16
Lokalizacja: Zielona Góra / okolYce

Re: Blues Beatdown

Postprzez Beavis » 1 gru 2009, o 19:54

OK już kumam :wink:
I Mean Acid Do Ya Like It ?

Obrazek

Terminator czasem musi też odpocząć

I'm a Rocker & Ace Of Spades
Avatar użytkownika
Beavis
 
Posty: 4733
Dołączył(a): 13 cze 2008, o 16:42
Lokalizacja: Sosnowiec

Re: Blues Beatdown

Postprzez meffcio » 1 gru 2009, o 23:36

Gżeśó napisał(a):A, jeszcze jedno. Tam gdzie są przejścia będziesz musiał do robić te wybrzmienia i slide'y jak w utworze, bo na pusto brzmi chujowo.

Ok, kontaktuj się jak coś xp
meffcio
 
Posty: 47
Dołączył(a): 19 cze 2009, o 15:12

Re: Blues Beatdown

Postprzez meffcio » 3 gru 2009, o 22:19

Coś tam, trochę Gżeśó perkusję dopisał, trochę ja dopisałem, trochę ja zmieniłem, trochę riffów dopisałem, i wstawiam właśnie dlatego, że teraz już wszystkie riffy są. Tylko solo brak.
Ale już tylko praca nad perkusją, i... może ktoś powiedzieć, jak ładnie slide'a kostką wpisać do GP? xd
Załączniki
blues_beatdown1.gp5
(62.08 KiB) Pobrane 212 razy
meffcio
 
Posty: 47
Dołączył(a): 19 cze 2009, o 15:12

Re: Blues Beatdown

Postprzez meffcio » 10 maja 2010, o 21:25

Najbardziej aktualna wersja jaką mam. Taką gramy na próbach i występach.
Oczywiście bez solówki i slide'ów kostką. -.-
Formaty GP4 i GP5
Załączniki
Blues Beatdown.gp5
(75.94 KiB) Pobrane 286 razy
Blues Beatdown.gp4
(46 KiB) Pobrane 149 razy
meffcio
 
Posty: 47
Dołączył(a): 19 cze 2009, o 15:12


Powrót do Verses of Steel

Kto przegląda forum

Użytkownicy przeglądający ten dział: Brak zidentyfikowanych użytkowników i 1 gość

cron