Deuce

Deuce

Postprzez petlica » 3 sie 2009, o 08:38

Kod: Zaznacz cały
Acid Drinkers
Fishdick
Deuce

by petlica

Standard tunning


Intro
E|-----------------------|--------------------------------|
H|-----------------------|--------------------------------|
G|-14--14-14-14-14-14----|------10-----------12--12-------|
D|-14--14-16-14-16-14-10-|------10--12-12----12--14p12----|
A|--0---0--0--0--0--0-10-|-10h12----12-12h14-----------14-|
E|-----------------------|--------------------------------|


E|-----------------------|--------------------------------|
H|-----------------------|--------------------------------|
G|-14--14-14-14-14-14----|-------10-----------------------|
D|-14--14-16-14-16-14-10-|-------10-----------------------|
A|--0---0--0--0--0--0-10-|-10h12--------------------------|
E|-----------------------|--------------------------------|


                             .........................3x
E|--------------------------|---------------------------|
H|--------------------------|---------------------------|
G|-2--2--5-7-5---5--7-5-----|-2-2-2--5-7-5---5--7-5-----|
D|-2--2--5-7-5---5--7-5-7-5-|-2-2-2--5-7-5---5--7-5-7-5-|
A|-0--0-----------------7-5-|-0-0-0-----------------7-5-|
E|--------------------------|---------------------------|



  ....................................................2x
E|--------------------------|---------------------------|
H|--------------------------|---------------------------|
G|-2---------5------7-------|-2-2-2--5-7-5---5--7-5-----|
D|-2---------5------7-------|-2-2-2--5-7-5---5--7-5-7-5-|
A|-0---------3------5-------|-0-0-0-----------------7-5-|
E|--------------------------|---------------------------|


E|--------------------------|---------------------------|
H|--------------------------|---------------------------|
G|-2---------5------7-------|-2-------------------------|
D|-2---------5------7-------|-2-------------------------|
A|-0---------3------5-------|-0-------------------------|
E|----------------------3b4-|---------------------------|


E|-------------------------|-------------------------|
H|-------------------------|-------------------------|
G|-5-----------------------|-5-----------------------|
D|-5-----------------------|-5-----------------------|
A|-3------3-4-5------------|-3------3-4-5------------|
E|--------------3-4-5~---0-|--------------3-4-5~---0-|


E|-------------------------|-------------------------|
H|-------------------------|-------------------------|
G|-------------------------|-------------------------|
D|-3-----------------------|-------------------------|
A|-3-----------------------|-5-5-5-------------------|
E|-1-----------------------|-3-3-3-------------------|



petlica
 
Posty: 100
Dołączył(a): 5 kwi 2009, o 10:35
Lokalizacja: Krk

Powrót do Fishdick

Kto przegląda forum

Użytkownicy przeglądający ten dział: Brak zidentyfikowanych użytkowników i 1 gość