Run run away

Run run away

Postprzez petlica » 22 lip 2009, o 00:09

Może komuś się przyda
Kod: Zaznacz cały
Acid Drinkers
Fishdick
Run_run_away

by petlica

Standard tunning


Intro

  Guitar_1&2
E|---------------------|---------------------|
H|---------------------|---------------------|
G|---------------------|---------------------|
D|---------------------|---------------------|
A|---------------------|---/x-/x-/x-/x-/x-/x-|
E|---------------------|---/x-/x-/x-/x-/x-/x-|

  Guitar_1&2
E|---------------------|---------------------|---------------------|---------------------|
H|---------------------|---------------------|---------------------|---------------------|
G|-----9-9-8-7---9-9---|-----9-9-8-7---9-9---|-----9-9-8-7---9-9---|-----9-9-8-7---------|
D|-7---9-9-8-7---9-9-5-|-7---9-9-8-7---9-9-5-|-7---9-9-8-7---9-9-5-|-7---9-9-8-7---------|
A|-7---7-7-6-5---7-7-5-|-7---7-7-6-5---7-7-5-|-7---7-7-6-5---7-7-5-|-7---7-7-6-5---------|
E|-5-----------------3-|-5-----------------3-|-5-----------------3-|-5-------------------|                                                     



  Guitar_1                     
E|------------------------------|-----------------------------|
H|------------17----------------|------------17-----17--------|
G|-14~--16-18-----14~--14-------|-14~--16-18-----18----16-13~-|
D|------------------------16-14-|-----------------------------|
A|------------------------------|-----------------------------|
E|------------------------------|-----------------------------|
 |                              |                             |
  Guitar_2                      |                             |
E|------------------------------|-----------------------------|
H|------------------------------|-----------------------------|
G|------------------------------|-----------------------------|
D|------------------------------|-----------------------------|
A|----------4--7----------------|----------4--7---4--7--------|
E|--5~---7---------5~---5--2--0-|--5~---7---------------7--4~-|


  Guitar_1                     
E|-17---------------------------|-17-------------------------|
H|------17-19-17----17-17-19-17-|------17-19-17-----17-------|
G|---------------18-------------|----------------18----16-14-|
D|------------------------------|----------------------------|
A|------------------------------|----------------------------|
E|------------------------------|----------------------------|
 |                              |                            |
  Guitar_2                      |                            |
E|------------------------------|----------------------------|
H|------------------------------|----------------------------|
G|------------------------------|----------------------------|
D|--7-77----4-------------------|--7-77----4-----------------|
A|-------7-----7--4--7--7-7/9-7-|-------7-----7---4--7-------|
E|------------------------------|-----------------------7--5~|



  Guitar_1
E|---------------------|----------------------|---------------------|----------------------|
H|---------------------|----------------------|---------------------|----------------------|
G|-----9-9-8-7---9-9---|-----9-9-8-7-9--------|-----9-9-8-7---9-9---|-----9-9-8-7-9--------|
D|-7---9-9-8-7---9-9-5-|-7---9-9-8-7-9----7-5-|-7---9-9-8-7---9-9-5-|-7---9-9-8-7-9----7-5-|
A|-7---7-7-6-5---7-7-5-|-7---7-7-6-5-7----7-5-|-7---7-7-6-5---7-7-5-|-7---7-7-6-5-7----7-5-|
E|-5-----------------3-|-5-------------3~-5-3-|-5-----------------3-|-5-------------3~-5-3-|





  Guitar_1&2
E|-------------------------|-----------------------|
H|-------------------------|-----------------------|
G|--------------7--7-4-----|-----------------------|
D|-------4-7-7---------7-7-|-------4-7-7--4-7------|
A|-5~--7-------------------|-5~--7------------7-4~-|
E|-------------------------|-----------------------|

  Guitar_1&2
E|------------------------------|------------------------|
H|------------------------------|------------------------|
G|-7----------------------------|-7----------------------|
D|----7-7/9-7-7--4-7-7--7/9-7-7-|----7-7/9-7-7--4-7------|
A|------------------------------|-------------------7-5~-|
E|------------------------------|------------------------|






  Guitar_1&2         
E|---------------------------|-------------------------------|
H|---------------------------|-------------------------------|
G|--------------7--7-7/9-7-7-|-7-9-9/11-9-7-9-9p7---7--7/9-7-|
D|-------4-7-7---------------|--------------------9----------|
A|-5~--7---------------------|-------------------------------|
E|---------------------------|-------------------------------|

  Guitar_1&2         
E|-----------------------------|------------------------|
H|-----------------------------|------------------------|
G|-7---------------------------|-7----------------------|
D|----7-7/9-7-7--4-7-7-7/9-7-7-|----7-7/9-7-7--4-7------|
A|-----------------------------|-------------------7-5~-|
E|-----------------------------|------------------------|




Bridge

  Guitar_1
E|--------------------|----------------------|---------------------|---------------------|
H|--------------------|----------------------|---------------------|---------------------|
G|--------------------|----------------------|---------------------|---------------------|
D|-7~-----------9-7-9-|-11~----------12-11-9-|-11--11-9-7-9--9-7-6-|-7~------------------|
A|--------------------|----------------------|---------------------|---------------------|
E|--------------------|----------------------|---------------------|---------------------|
  Guitar_2            |                      |                     |                     |
E|--------------------|----------------------|---------------------|---------------------|
H|--------------------|----------------------|---------------------|---------------------|
G|--------------------|----------------------|---------------------|---------------------|
D|--------------------|----------------------|---------------------|---------------------|
A|--------------------|----------------------|---------------------|---------------------|
E|-5---5-5-5-5--7-5-7-|-9---9-9-9-9---10-9-7-|-9---9-7-5-7---7-5-4-|-5---5-5-5-5-5-5-5---|
      pm.....               pm.....                                     pm............



  Guitar_1
E|--------------------|----------------------|---------------------|---------------------|
H|--------------------|----------------------|---------------------|---------------------|
G|-7~-----------9-7-9-|-11~----------12-11-9-|-11--11-9-7-9--9-7-6-|-7~------------------|
D|--------------------|----------------------|---------------------|---------------------|
A|--------------------|----------------------|---------------------|---------------------|
E|--------------------|----------------------|---------------------|---------------------|
  Guitar_2            |                      |                     |                     |
E|--------------------|----------------------|---------------------|---------------------|
H|--------------------|----------------------|---------------------|---------------------|
G|--------------------|----------------------|---------------------|---------------------|
D|--------------------|----------------------|---------------------|---------------------|
A|-5---5-5-5-5--7-5-7-|-9---9-9-9-9---10-9-7-|-9---9-7-5-7---7-5-4-|-5---5-5-5-5-5-5-5---|
E|--------------------|----------------------|---------------------|---------------------|
      pm.....               pm.....                                     pm............


Pozdr
petlica
 
Posty: 100
Dołączył(a): 5 kwi 2009, o 10:35
Lokalizacja: Krk

Powrót do Fishdick

Kto przegląda forum

Użytkownicy przeglądający ten dział: Brak zidentyfikowanych użytkowników i 1 gość