Oh, no! Bruno

Oh, no! Bruno

Postprzez petlica » 21 lip 2009, o 08:54

Kod: Zaznacz cały
Acid Drinkers
Fishdick
Oh, no! Bruno

by petlica


Intro/Ref

E|----------------------------|----------------------------|
H|----------------------------|----------------------------|
G|-5--5-5-5-5-5--2--2-2-2-2-2-|-9--9-9-9-9-9--9--9-9-9-9-9-|
D|-5--5-5-5-5-5--2--2-2-2-2-2-|-9--9-9-9-9-9--9--9-9-9-9-9-|
A|-3--3-3-3-3-3--0--0-0-0-0-0-|-7--7-7-7-7-7--7--7-7-7-7-7-|
E|----------------------------|----------------------------|


E|----------------------------|---------------------------------|
H|----------------------------|---------------------------------|
G|-5--5-5-5-5-5--2--2-2-2-2-2-|-8/9-9-9-8/9-9-9-8/9-9-9-8/9-9-9-|
D|-5--5-5-5-5-5--2--2-2-2-2-2-|---------------------------------|
A|-3--3-3-3-3-3--0--0-0-0-0-0-|-6/7-7-7-6/7-7-9-6/7-7-7-6/7-7-7-|
E|----------------------------|---------------------------------|


E|----------------------------|---------------------------|
H|----------------------------|---------------------------|
G|-5--5-5-5-5-5--2--2-2-2-2-2-|-----9-----9-----9-----9---|
D|-5--5-5-5-5-5--2--2-2-2-2-2-|---------------------------|
A|-3--3-3-3-3-3--0--0-0-0-0-0-|-----7-----7-----7-----7---|
E|----------------------------|-0-0---0-0---0-0---0-0-----|

                                                         x4                     
E|----------------------------|----------------------------|
H|----------------------------|----------------------------|
G|-5--5-5-5-5-5--2--2-2-2-2-2-|----------------------------|
D|-5--5-5-5-5-5--2--2-2-2-2-2-|-2--2-2-2-2-2-2-2-2-2-2--7--|
A|-3--3-3-3-3-3--0--0-0-0-0-0-|-2--2-2-2-2-2-2-2-2-2-2--7--|
E|----------------------------|-0--0-0-0-0-0-0-0-0-0-0--5--|


Verse                     x4
E|----------------------------|
H|----------------------------|
G|----------------------------|
D|----------------------------|
A|-4-4-4-4-4-4-4-4-4-4-4------|
E|-------------------------2--|




Bridge
                                  x4                                 x4
E|----------------------------------|----------------------------------|
H|----------------------------------|----------------------------------|
G|----------------------------------|-------9----11-9------------------|
D|----11-7---9-7--------9--8--------|----11---11------11-9--9--7-------|
A|--9------9-----9-7----7--6---9----|--9--------------------------9-9--|
E|-----------------------------7----|----------------------------------|
 |                                  |                                  |
 |Guitar_2                          |                                  |
E|----------------------------------|----------------------------------|
H|----------------------------------|----------------------------------|
G|----------------------------------|----------------------------------|
D|-11-------------------9--8--------|-11--------------------9--8-------|
A|--9-------------------7--6---9----|--9--------------------7--6--9----|
E|-----------------------------7----|-----------------------------7----|



                          x4
E|-------------------------|
H|-------------------------|
G|-------------------------|
D|-2--2--2--2--2--2--2--7--|
A|-2--2--2--2--2--2--2--7--|
E|-0--0--0--0--0--0--0--5--|
   pm.................



E|----------------------------|----------------------------|
H|----------------------------|----------------------------|
G|----------------------------|----------------------------|
D|----------------------------|-------------7~-----7-7-7-7-|
A|--------------6~------------|-9~-------------------------|
E|--7~------------------------|----------------------------|



E|----------------------------|----------------------------|
H|----------------------------|----------------------------|
G|-5--5-5-5-5-5--5--5-5-5-5-5-|-9--9-9-9-9-9--9--9-9-9-9-9-|
D|-5--5-5-5-5-5--5--5-5-5-5-5-|-9--9-9-9-9-9--9--9-9-9-9-9-|
A|-3--3-3-3-3-3--3--3-3-3-3-3-|-7--7-7-7-7-7--7--7-7-7-7-7-|
E|----------------------------|----------------------------|



petlica
 
Posty: 100
Dołączył(a): 5 kwi 2009, o 10:35
Lokalizacja: Krk

Powrót do Fishdick

Kto przegląda forum

Użytkownicy przeglądający ten dział: Brak zidentyfikowanych użytkowników i 1 gość

cron