Balada

Balada

Postprzez Mikele » 8 lis 2008, o 18:23

Kod: Zaznacz cały
Acid Drinkers
Fishdick
Balada

by Mikele

(Tab rozpisany na dropped D, bo mi się wiosła nie chciało przestrajać ;P)

Intro, fill, główna linia melodyczna i kto tam wie, co jeszcze ;) :

(~ - vibrato, / - slide, p - pull off, h - hammer on)
|------------------------------|---------------------------------------------|
|------------------------------|---------------------------------------------|
|--8~---8--7--5----------5--7/-|--10~---7/-10--12--12/10p7h10p7h10h12/10p7~--|
|----------------8~---8--------|---------------------------------------------|
|------------------------------|---------------------------------------------|
|------------------------------|---------------------------------------------|
 
(r - bend and realease, pełny)
|------------------------------|---------------------|
|------------------------------|---------------------|
|--8~---8r-8--7----------5--7--|-------5~------------|
|----------------8~---8--------|--7~--------5~-------|
|------------------------------|---------------------|
|------------------------------|---------------------|

Riff przed zwrotką, w formie zubożonej grany na zwrotkę:

|--------------------------|
|--------------------------|
|--------------------------|
|--3--0--3--5----5~---3----|
|--3--0--3--5---------3----|
|--3--0--3--5---------3----|


Po krótkim zamieszaniu po zwrotce następuje refren:

(b - bend, pełny)
|------------------------------------------|
|------------------------------------------|
|------------------------------------------|
|--4--1--4--5b-5b-5b-6----------6----------|
|--4--1--4--6--6--6--6----------6----------|
|--4--1--4-----------6--6-6-6-6-6--6-6-6-6-|


W ostatnim takcie refrenu, po podciągnięciach na 5 progu struny D nalezy zagrać dźwięki G# i A zagrane jako ćwierćnuty, i w kółeczko, ten sam zestaw, wot eto wsjo :D



Najkrótszy i najbardziej prosty tab, jaki w życiu sporządziłem, a jakież to miłe dla ucha ;)
Obrazek
Avatar użytkownika
Mikele
 
Posty: 5967
Dołączył(a): 7 mar 2006, o 19:33
Lokalizacja: Wrocław i okolice

Balada

Postprzez Pajdak6 » 18 lip 2009, o 16:35

Mój tab (a raczej kawałek) w gp. Oceniajcie i pomóżcie go dokończyć :)

http://www.sendspace.com/file/emttlu
Barmy Army!
Pajdak6
 
Posty: 66
Dołączył(a): 13 lip 2009, o 20:02

Re: Balada

Postprzez petlica » 21 lip 2009, o 08:52

To i ja dorzucę pewnie to samo ale nie mam GP i nie wiem co jest w pliku powyżej.
Kod: Zaznacz cały
Acid Drinkers
Fishdick
Balada

by petlica

dropped D

Intro
  Guitar_1
E|-----------------------------|-----------------------------|
H|-----------------------------|-----------------------------|
G|-----------------------------|-----------------------------|
D|-----------------------------|-----------------------------|
A|-----------------------------|-----------------------------|
D|-----------------------------|-----------------------------|
 |Guitar_2                     |                             |
E|-----------------------------|-----------------------------|
H|-----------------------------|-----------------------------|
G|-----------------------------|-----------------------------|
D|-----------------------------|-----------------------------|
A|-----------------------------|-----------------------8-5-8-|
D|-----------------------------|-----------------------8-5-8-|
                                                       pm...



  Guitar_1
E|-----------------------------|-----------------------------------|
H|-----------------------------|-----------------------------------|
G|-8~--8-7h8p7-5----------5-7--|-10---7s10-12-12p10---12-12p10-----|
D|---------------8~-----8------|-------------------12----------12~-|
A|-----------------------------|-----------------------------------|
D|-----------------------------|-----------------------------------|
 |Guitar_2                     |                                   |
E|-----------------------------|-----------------------------------|
H|-----------------------------|-----------------------------------|
G|-5-------------3-------------|--------------------------3--------|
D|-5-------------3-------------|-3-------------5----------3--------|
A|-3-------------1-------------|-3-------------5----------1--------|
D|-----------------------------|-3-------------5-------------------|


                                                   Lewą ręką gramy powtarzalne 0h2p0h2p0 
                                                   Małym palcem prawej ręki przesuwamy po
                                                   strunie G od mostka w stronę główki uzyskując
                                                   sztuczne flażolety
  Guitar_1
E|-----------------------------|------------------------------------|
H|-----------------------------|------------------------------------|
G|-8~--8-7h8p7-5----------5-7--|--------------------(0h2p0h2p0)-----|
D|---------------8~-----8------|-7---/10-8-7h8p7-5------------------|
A|-----------------------------|------------------------------------|
D|-----------------------------|------------------------------------|
 |Guitar_2                     |                                    |
E|-----------------------------|------------------------------------|
H|-----------------------------|------------------------------------|
G|-5-------------3-------------|------------------------------------|
D|-5-------------3-------------|-3---------------1------------------|
A|-3-------------1-------------|-3---------------1------------------|
D|-----------------------------|-3---------------1------------------|




  Guitar_1
E|-----------------------------|-----------------------------------|
H|-----------------------------|-----------------------------------|
G|-8~--8-7h8p7-5----------5-7--|-10---7s10-12-12p10---12-12p10-----|
D|---------------8~-----8------|-------------------12----------12~-|
A|-----------------------------|-----------------------------------|
D|-----------------------------|-----------------------------------|
 |Guitar_2                     |                                   |
E|-----------------------------|-----------------------------------|
H|-----------------------------|-----------------------------------|
G|-5-------------3-------------|--------------------------3--------|
D|-5-------------3-------------|-3-------------5----------3--------|
A|-3-------------1-------------|-3-------------5----------1--------|
D|-----------------------------|-3-------------5-------------------|


  Guitar_1                                       
E|-----------------------------|-----------------------------------|
H|-----------------------------|-----------------------------------|
G|-8~--8-7h8p7-5----------5-7--|-----------------------------------|
D|---------------8~-----8------|-7---/10-8-7h8p7-5-----------------|
A|-----------------------------|-----------------------------------|
D|-----------------------------|-----------------------------------|
 |Guitar_2                     |                                   |
E|-----------------------------|-----------------------------------|
H|-----------------------------|-----------------------------------|
G|-5-------------3-------------|-----------------------------------|
D|-5-------------3-------------|-3---------------1-----------------|
A|-3-------------1-------------|-3---------------1-----------3-0-3-|
D|-----------------------------|-3---------------1-----------3-0-3-|
                                                             pm...



  Guitar_1
E|-----------------------------|-----------------------------|
H|-----8-----------------------|-----8-----------------------|
G|----10b12~-------------------|----10b12~-------------------|
D|-5-----------3---1-----------|-5-----------3---1-----------|
A|-5-----------3---1-----3-0-3-|-5-----------3---1-----3-0-3-|
D|-5-----------3---1-----3-0-3-|-5-----------3---1-----3-0-3-|
                         pm...                         pm...


  Guitar_1
E|-----------------------------|-----------------------------|
H|-----8-----------------------|-----8-----------------------|
G|----10b12~-------------------|----10b12~-------------------|
D|-5-----------3---1-----------|-5---------------------------|
A|-5-----------3---1-----3-0-3-|-5---------3-3-3-3-3---3-0-3-|
D|-5-----------3---1-----3-0-3-|-5---------3-3-3-3-3---3-0-3-|
                         pm...             pm...............


Verse
  Guitar_1
E|-----------------------------|-----------------------------|
H|-----------------------------|-----------------------------|
G|-----------------------------|-----------------------------|
D|-5-----------3---------------|-5-----------7---------------|
A|-5-----------3---------3-0-3-|-5-----------8---------3-0-3-|
D|-5-----------3---------3-0-3-|-5-----------7---------3-0-3-|
                         pm...                         pm...


  Guitar_1
E|-----------------------------|-----------------------------|
H|-----------------------------|-----------------------------|
G|-----------------------------|-----------------------------|
D|-----------------------------|-----------------------------|
A|-----------------------------|-----------------------------|
D|-----------------------------|-----------------------------|
 |Guitar_2                     |                             |
E|-----------------------------|-----------------------------|
H|-----------------------------|-----------------------------|
G|-----------------------------|-----------------------------|
D|-5-----------3---------------|-5-----------3---------------|
A|-5-----------3---------3-0-3-|-5-----------3---------3-0-3-|
D|-5-----------3---------3-0-3-|-5-----------3---------3-0-3-|
                         pm...                         pm...
                                             

  Guitar_1                   x3
E|-----------------------------|-----------------------------|
H|-----------------------------|-----------------------------|
G|-15----14----10--------------|-15----14----13--------------|
D|-----------------------------|-----------------------------|
A|-13----12-----8--------------|-13----12----11--------------|
D|-----------------------------|-----------------------------|
 |Guitar_2                     |                             |
E|-----------------------------|-----------------------------|
H|-----------------------------|-----------------------------|
G|-----------------------------|-----------------------------|
D|-5-----------3---------------|-5-----------3---------------|
A|-5-----------3---------3-0-3-|-5-----------3---------3-0-3-|
D|-5-----------3---------3-0-3-|-5-----------3---------3-0-3-|
                         pm...                         pm...
                                             

Ref
  Guitar_1                               x3
E|-----------------------------------------|-----------------------------------------|
H|-----------------------------------------|-----------------------------------------|
G|-----------------------------------------|-----------------------------------------|
D|-----------------------------------------|-----------------------------------------|
A|--------------3s1-0-0-0-3s1-0-0-0--3-0-3-|-----------------------------------------|
D|-7b8-7b8-7b8--3s1-0-0-0-3s1-0-0-0--3-0-3-|-7--7--7--8------------------------------|
                                     pm...                       



petlica
 
Posty: 100
Dołączył(a): 5 kwi 2009, o 10:35
Lokalizacja: Krk


Powrót do Fishdick

Kto przegląda forum

Użytkownicy przeglądający ten dział: Brak zidentyfikowanych użytkowników i 1 gość

cron