Strona 1 z 1

Calista

PostNapisane: 3 sty 2009, o 14:38
przez Mikele
Nie ma za co Beavis ;)

Kod: Zaznacz cały
Acid Drinkers
Broken Head
Calista

by Mikele

Intro, breaki i część refrenów (Riff 1a):

br - bend and realase (o cały ton)

D||-------------------------|-------------------------|
A||-------------------------|-------------------------|
F||-------------------------|-------------------------|
C||-----3-------------------|--5br----3---------------|
G||--5-----5--3~------------|------------5~-----------|
C||-----------------0----0--|-------------------------|

Breaki i refreny (Riff 1b):

|------------------------|-----------------------|
|------------------------|-----------------------|
|------------------------|-----------------------|
|-----3-----5------------|-----------------------|
|--5-----5--3----0----0--|--7--5--3--0-----------|
|----------------0----0--|--7--5--3--0-----------|

Zwrotki:

br - bend and realase (o cały ton)
(Wszystkie ósemkowe dźwięki tłumione)

|-------------------------|---------------------------|-------------------------|---------------------|
|-------------------------|---------------------------|-------------------------|---------------------|
|-------------------------|---------2br---------------|-------------------------|---------------------|
|-------------------------|---------------------------|-------------------------|---------------------|
|--2--2--2--1----1--1--1--|--0--0---5br------0--0--0--|--2--2--2--1----1--1--1--|--0--0---------------|
|--2--2--2--1----1--1--1--|--0--0--(7)-------0--0--0--|--2--2--2--1----1--1--1--|--0--0---------------|

Pre-chorus ("Skin and bones..."):

L - tied note

|-----------------------|------------------------|-------------------------|-------------------------|
|-----------------------|------------------------|-------------------------|-------------------------|
|-----------------------|------------------------|-------------------------|-------------------------|
|-----------------------|------------------------|-------------------------|-------------------------|
|--5----5----5----5--7--|--L--7----8----8--8--8--|--1--3--1--0----0--0--0--|--1--3--1--0----0--0--0--|
|--5----5----5----5--7--|--L--7----8----8--8--8--|--1--3--1--0----0--0--0--|--1--3--1--0----0--0--0--|

Riff pod solo:
(pierwsza część solo, riff grany 2 razy, póxniej za podkład robi roff na intro)

|---------------------------|---------------------------|---------------------------|--------------------------|
|---------------------------|---------------------------|---------------------------|--------------------------|
|---------------------------|---------------------------|---------------------------|--------------------------|
|---------------------------|---------------------------|---------------------------|--------------------------|
|--3--3--3--3-3--3-3--3--3--|--2--2--2--1-1--1-1--0--0--|--3--3--3--3-3--3-3--3--3--|--5--5--5--6-6--6-6--7----|
|--3--3--3--3-3--3-3--3--3--|--2--2--2--1-1--1-1--0--0--|--3--3--3--3-3--3-3--3--3--|--5--5--5--6-6--6-6--7----|

i to by było na tyle.