My pick

My pick

Postprzez Przemytnik rzeżuchy » 7 gru 2009, o 20:22

Riff 1 (x8)

D|--------------------------------------|
A|--------------------------------------|
F|--------------------------------------|
C|-3--2--2-----------4h6--3--2----------|
G|-3--2--2-----------4h6--3--2----------|
D|-1--0--0--0-0-0-0--2h4--1--0--0-0-0-0-|


Refren

Riff 2 (x3)

D|--------------|----------------------|--------------|----------------------|
A|--------------|----------------------|--------------|----------------------|
F|-6--6-6-6-6-6-|----------------------|-4--4-4-4-4-4-|----------------------|
C|-6--6-6-6-6-6-|----------------------|-4--4-4-4-4-4-|----------------------|
G|-4--4-4-4-4-4-|----------------------|-2--2-2-2-2-2-|----------------------|
D|--------------|-3--3-3-3-3-3-3-3-3-3-|--------------|-2--2-2-2-2-2-2-2-2-2-|

Riff 3

D|--------------|----------------------|--------------|
A|--------------|----------------------|--------------|
F|-6--6-6-6-6-6-|----------------------|-4--4-4-4-4-4-|
C|-6--6-6-6-6-6-|----------------------|-4--4-4-4-4-4-|
G|-4--4-4-4-4-4-|----------------------|-2--2-2-2-2-2-|
D|--------------|-3--3-3-3-3-3-3-3-3-3-|--------------|


|---------------------------------|
|---------------------------------|
|----------------------4--4--4--4-|
|----------------------4--4--4--4-|
|-2--2-2-2-2-2-2-2-2-2-2--2--2--2-|





Riff 1 (x8)

Refren Riff 2 (x4)


Riff 4 (x4)

D|---------------------|---------------------------|
A|---------------------|---------------------------|
F|------9---------9----|---------------------------|
C|-2----9---------9----|---------------------------|
G|-2----7---------7----|---------------------------|
D|-0-------------------|-3--5-5--5-5-5-3--5-5--5-1-|

Riff 5 (x4)

D|---------------------|
A|---------------------|
F|------9---------9----|
C|-2----9---------9----|
G|-2----7---------7----|
D|-0-------------------|

Riff 6

D|---------------------|
A|--------9--------- --|
F|------9---9-10--9----|
C|---------------------|
G|---------------------|
D|---------------------|


-Riff 1 (x4)
-Riff 2 (x4)
-Riff 4 (x4)
-Riff 5 (x4)
-Riff 6
Bazinga!
Przemytnik rzeżuchy
 
Posty: 1626
Dołączył(a): 17 maja 2009, o 14:40
Lokalizacja: Bytom

Powrót do Amazing Atomic Activity

Kto przegląda forum

Użytkownicy przeglądający ten dział: Brak zidentyfikowanych użytkowników i 1 gość