Sad like a Coal Check

Sad like a Coal Check

Postprzez Mikele » 2 cze 2011, o 18:10

Rozpisana linia melodyczna, strój standardowy, dwa riffy na krzyż.

Kod: Zaznacz cały
Zwrotka:

B||----------------------|-----------------------|-------------------|
G||----------------------|-----------------------|-------------------|
D||----------------------|-----------------------|-------------------|
A||-----3-----2~---------|-----3-----2~----------|-------------------|
E||--5-----5-------------|--5-----5---------5----|-------------------|
B||----------------------|-----------------------|--6~---------------|

Refren:

|--------------------|--------------------|----------------------||
|--------------------|--------------------|----------------------||
|--------------------|--------------------|----------------------||
|--------------------|--------------------|----------------------||
|--------------------|--------------------|----------------------||
|--5~-------1~-------|--5~-------1~-------|--5~-------4~---4r-1~-||
Obrazek
Avatar użytkownika
Mikele
 
Posty: 5967
Dołączył(a): 7 mar 2006, o 19:33
Lokalizacja: Wrocław i okolice

Powrót do High Proof Cosmic Milk

Kto przegląda forum

Użytkownicy przeglądający ten dział: Brak zidentyfikowanych użytkowników i 1 gość

cron