Human Bazooka

Human Bazooka

Postprzez Przemytnik rzeżuchy » 7 sty 2010, o 21:21

Intro :
||----------------------------------------------------------||
||----------------------------------------------------------||
||----------------------------------------------------------||
||----------------------------------------------------------||
||----------------------------------------------------------||
||----0h1--------0h1---------0h1--2-------------------------||

Verse :
||----------------------------------------------------------||
||----------------------------------------------------------||
||----------------------------------------------------------||
||----------------------------------------------------------||
||-------6-5--6-5--6-5-6-5---6------------------------------||
||----------------------------------------------------------||

Chorus :
||----------------------------------------------------------||
||----------------------------------------------------------||
||----------------------------------------------------------||
||----------------------------------------------------------||
||-----1-0---1-0--1-0--2------------------------------------||
||-----1-0---1-0--1-0--2------------------------------------||
Bazinga!
Przemytnik rzeżuchy
 
Posty: 1626
Dołączył(a): 17 maja 2009, o 14:40
Lokalizacja: Bytom

Re: Human Bazooka

Postprzez Laser » 17 lip 2011, o 19:05

ktoś ma może tabulaturę do tej piosenki? :twisted:
"Ciotkę parowozu przetaczać na sznyclach." - Stanisław Lem
Avatar użytkownika
Laser
 
Posty: 3229
Dołączył(a): 7 mar 2006, o 23:57
Lokalizacja: Szczecin

Re: Human Bazooka

Postprzez Mikele » 17 lip 2011, o 21:08

Na szybko riffy coś w ten deseń:

Kod: Zaznacz cały
Intro :
||----------------------------------------------------------||
||----------------------------------------------------------||
||----------------------------------------------------------||
||----------------------------------------------------------||
||----------------------------------------------------------||
||----0h6--------0h6---------0h6p3---------------------------||

Verse :                       ->alternatywnie bend na 6 progu
||----------------------------------------------------------||
||----------------------------------------------------------||
||----------------------------------------------------------||
||----------------------------------------------------------||
||-------6-5--6-5--6-5-6-5---7------------------------------||
||----------------------------------------------------------||

Chorus :
||----------------------------------------------------------||
||----------------------------------------------------------||
||----------------------------------------------------------||
||----------------------------------------------------------||
||-----3-4---4-3--4-3--5------------------------------------||
||-----2-1---2-1--2-1--3------------------------------------||
Obrazek
Avatar użytkownika
Mikele
 
Posty: 5967
Dołączył(a): 7 mar 2006, o 19:33
Lokalizacja: Wrocław i okolice

Re: Human Bazooka

Postprzez Laser » 18 lip 2011, o 10:12

ok - dzięki Mikele.. :wink:

a jak napiszę to w GPro to pomożesz z perkusją? serio się pytam.
"Ciotkę parowozu przetaczać na sznyclach." - Stanisław Lem
Avatar użytkownika
Laser
 
Posty: 3229
Dołączył(a): 7 mar 2006, o 23:57
Lokalizacja: Szczecin

Re: Human Bazooka

Postprzez Mikele » 18 lip 2011, o 10:18

Ale zapisz plik w gp4, bo mi się cuś zjebało w GP5 a nie chce mi się od nowa instalować ;)
Obrazek
Avatar użytkownika
Mikele
 
Posty: 5967
Dołączył(a): 7 mar 2006, o 19:33
Lokalizacja: Wrocław i okolice


Powrót do High Proof Cosmic Milk

Kto przegląda forum

Użytkownicy przeglądający ten dział: Brak zidentyfikowanych użytkowników i 1 gość