United Suicide Legion

United Suicide Legion

Postprzez petlica » 15 maja 2009, o 09:43

Kilka riffów United Suicide Legion, mogą być błędy bo pisze z pamięci w pracy i nie mam gitary przy sobie.

Kod: Zaznacz cały
Acid Drinkers
TSoMR
United Suicide Legion

by petlica

standard tunning od Eb - chyba

Intro

  Guitar_1                                                                                 x3
E|---------------------------------------------|---------------------------------------------|
H|---------------------------------------------|---------------------------------------------|
G|---------------------------------------------|---------------------------------------------|
D|-----2--------2--------2-----2---------------|---------------------------------------------|
A|-----------0-----0--1-----2-----2------------|---------------------------------------------|
E|--3-----3-------------------------0-/5-3-0---|---------------------------------------------|
 |                                             |                                             |
 |Guitar_2                                     |                                             |
E|---------------------------------------------|---------------------------------------------|
H|---------------------------------------------|---------------------------------------------|
G|---------------------------------------------|---------------------------------------------|
D|-------------------------------------7-5-----|-------------------------------------7-5-----|
A|---------------------------------/7------7~--|-----7--------7--------7-----7----/7-----7~--|
E|---------------------------------------------|--3-----3-/5-----5-/6-----7-----7------------|



  Guitar_1                                                                                 
E|---------------------------------------------|---------------------------------------------|
H|---------------------------------------------|---------------------------------------------|
G|---------------------------------------------|---------------------------------------------|
D|-----2--------2--------2-----2---------------|---------------------------------------------|
A|-----------0-----0--1-----2-----2------------|---------------------------------------------|
E|--3-----3-------------------------0-/5-3-0---|---------------------------------------------|
 |                                             |                                             |
 |Guitar_2                                     |                                             |
E|---------------------------------------------|---------------------------------------------|
H|---------------------------------------------|---------------------------------------------|
G|---------------------------------------------|---------------------------------------------|
D|---------------------------------------------|---------------------------------------------|
A|---------------------------------------------|---------------------------------------------|
E|---------------------------------------------|---------------------------------------------|



E|---------------------------------------------|
H|---------------------------------------------|
G|---------------------------------------------|
D|---------------------------------------------|
A|-----7--------7--------7-----7-----------7~--|
E|--3-----3-/5-----5-/6-----7----7-0-/5-3------|



E|---------------------------------------------|
H|---------------------------------------------|
G|---------------------------------------------|
D|---------------------------------------------|
A|-----7--------7--------7-----7-----------7~--|
E|--3-----3--5-----5--6-----7-----7-0-/5-3-----|
   pm..............................        PH



E|---------------------------------------------|
B|---------------------------------------------|
G|---------------------------------------------|
D|--7---5--7----7---5--7----7---5--7--5--------|
A|--7---5--7----7---5--7----7---5--7--5--7~----|
E|--5---3--5----5---3--5----5---3--5--3--------|
                                         PH


Verse
E|---------------------3-----------------------|
H|--0------------------3-----------------------|
G|--0------------------3-----------------------|
D|--2------------------5-----------------------|
A|--2------------------5-----------------------|
E|--0------------------3-----------------------|






petlica
 
Posty: 100
Dołączył(a): 5 kwi 2009, o 10:35
Lokalizacja: Krk

Re: United Suicide Legion

Postprzez PeZet » 4 lut 2015, o 15:43

Moja wersja United Suicide Legion

Strój standardowy (jak na płycie) 2 tony w dół (C F Bb Eb G C)

riff - akustycznie, poźniej z fuzzem (trzeba sobie dostosować)
|------------------------------|------------------------------|
|------------------------------|------------------------------|
|---0-(0)--0----0-0----------|---0-(0)--0----0-0--0-5-3--|
|-0----------------------------|-0-----------------------5---|
|-1----1-3---3-4-5-5---3-1--|-1----1-3---3-4-5-5--------|
|-3------------------3----3---|-3----------------------------|
[uwaga - riff taki sam, jak 2B1! grany gdzieś w środku numeru - patrz niżej]
[2B1]
|-----------------------|
|-----------------------|
|-----------------------|
|--5--5---5-5----------|
|----3-3-4-5-5-4-3----|
|-3-3-------------6-3--|

refren
|----------|-------------|
|----------|-------------|
|----------|-------------|
|-10--8-10-|-8---5----|
|-10--8-10-|-8---5----|
|-8---6-8--|-6---3----|

verse
|----------|------------|
|-3---(3)--|-6---(6)--|
|-3---(3)--|-6---(6)--|
|-5---(5)--|-8---(8)--|
|-5---(5)--|-8---(8)--|
|-3---(3)--|-6---(6)--|
g ais
PeZet
 
Posty: 2
Dołączył(a): 3 lut 2015, o 16:14


Powrót do The State of Mind Report

Kto przegląda forum

Użytkownicy przeglądający ten dział: Brak zidentyfikowanych użytkowników i 1 gość

cron