Solid Rock

Solid Rock

Postprzez petlica » 12 maja 2009, o 09:16

Kod: Zaznacz cały
ACID DRINKERS
         SOLID ROCK
   Transcribed by Grzegorz Musialik grg@c.ipa.com.pl
 Tune down 2 whole steps (low to high C F Bb Eb G C )
 
  tr
 6h(7p6)  - trill

 <3>    - natural harmonic, 3rd fret

   fig 1 (play 2 times)                  end fig 1
C-----------------------------------------------------------------------|
G------------\8----5-------------------\8-----7-------------------------|
Eb---------5-----------------------5---------------------------5--------|
Bb-----7----------------------7-------------------------7---------------|
F--0---------------------0-------------------------0--------------------|
C-----------------------------------------------------------------------|


  fig 2 (play 8 times)                  end fig 2
C-----------------------------------------------------------------------|
G-----------------------------------------------------------------------|
Eb----------------------------------------------------------------------|
Bb-------------------------------------------------------------5--------|
F--------------------------------------------------------------5--------|
C---0---0-0---3h5-3----0-0-0---3h5-3---0---0-0---3h5-3---0-5h6----0-0-0-|


  fig 3                        end fig 3
C-----------------------------------------------------------------------|
G-----------------------------------------------------------------------|
Eb----------------------------------------------------------------------|
Bb-------------------------------------------------------tr-------------|
F---------------------------------------------------7---6h(7p6)---------|
C--0-----0--3-----7~~~--3---6---3---0----0--3---\7----------------------|


 play fig 2 (4 times)

  fig 4                  end fig 4
C-------------------------------------------------------------|
G-------------------------------------------------------------|
Eb------------------------------------------------------------|
Bb------------------------------------------------------------|
F----------------------------------------------7---6----------|
C---0----0--3---7~~~--3--6--3----0----0--3--7-----------------|


  fig 5 (play 4 times)                end fig 5
C------------------------------------------------------------|
G------------------------------------------------------------|
Eb-----------------------------------------------------------|
Bb-----------------------------------------------------------|
F---2--2-------2---5--7----2--2--------2--5--7---2--2--5--7--|
C---0--0-------0---3--5----0--0--------0--3--5---0--0--3--5--|


 play fig 2 (6 times)
 play fig 4
 play fig 5 (4 times)
 

  fig 6 (play 4 times)            end fig 6
C------------------------------------------------------------|
G------------------------------------------------------------|
Eb-----------------------------------------------------------|
Bb-----------------------------------------------------------|
F---2--2-------2---5--7----2--2--------2--5--7---2--2--5--7--|
C---0--0--<3>--0---3--5----0--0--<3>---0--3--5---0--0--3--5--|


 play fig 2 (4 times)
   
                                       
  fig 7 (gtr I)- play 3 times         end fig 7
C------------------------------------------------------|
G------------------------------------------------------|
Eb-----------------------------------------------------|
Bb----------------------------------------5------------|
F---9-------------------------5-----------3------------|
C---7-------------------------3------------------------|
                         |   
  gtrs II&III (arranged for one guitar)             |
C------------------------------------------------------|
G------------------------------------------------------|
Eb---9\11-11-11--11\12-12-12--14-11-------11-11-12-----|
Bb--11\12-12-12--12\14-14-14--16-12-------12-12-14-12--|
F--------------------------------------------------14--|
C------------------------------------------------------|


C---------------------------------------------------|
G---------------------------------------------------|
Eb---9\11-11-11--11\12-12-12--14--------16~~~-------|
Bb--11\12-12-12--12\14-14-14--16p12-----12----------|
F---------------------------------------------------|
C---------------------------------------------------|


C-------------------------------------\15-14-12----------------------------|
G------------------------------\13-12-----------15-13-12-------------------|
Eb---------------------\12-11----------------------------14-12-11-~~~~~~---|
Bb--------------\10-9------------------------------------------------------|
F--\7----\10-9-------------------------------------------------------------|
C--------------------------------------------------------------------------|


 play fig 1 (2 times)
 play fig 2 (5 times)                               
 play fig 4
 play fig 5 (4 times)
 play fig 6 (4 times)

C-------------------------------|
G-------------------------------|
Eb------------------------------|
Bb------------------------------|
F---2---2-----------------------|
C---0---0-----------------------|


petlica
 
Posty: 100
Dołączył(a): 5 kwi 2009, o 10:35
Lokalizacja: Krk

Re: Solid Rock

Postprzez Mikele » 19 lip 2009, o 16:52

Acid Drinkers - Solid Rock (2).gp3
autor: kazbunda <kazbunda@wp.pl>
(31.43 KiB) Pobrane 146 razy
Obrazek
Avatar użytkownika
Mikele
 
Posty: 5967
Dołączył(a): 7 mar 2006, o 19:33
Lokalizacja: Wrocław i okolice

Re: Solid Rock

Postprzez szowiór666 » 21 lut 2010, o 18:38

Obrazek
szowiór666
 
Posty: 1472
Dołączył(a): 20 kwi 2009, o 22:18
Lokalizacja: KwasLand

Re: Solid Rock

Postprzez Wozik » 6 kwi 2010, o 22:23

Taki oto backing track powstał z mojej ręki (w oparciu o taby powyżej).

http://wozik.com/Solid.mp3
Avatar użytkownika
Wozik
 
Posty: 135
Dołączył(a): 4 maja 2006, o 10:19


Powrót do The State of Mind Report

Kto przegląda forum

Użytkownicy przeglądający ten dział: Brak zidentyfikowanych użytkowników i 1 gość