24 Radical Questions

24 Radical Questions

Postprzez petlica » 12 maja 2009, o 09:16

Kod: Zaznacz cały
ACID DRINKERS
         24 RADICAL QUESTIONS

   Transcribed by Grzegorz Musialik (grg@c.ipa.com.pl)

  Tune down 2 whole steps (low to high C F Bb Eb G C )

                        play 2 times   
C--------------------------------------------------------------------------|
G--------------------------------------------------------------------------|
Eb-------------------------------------------------------------------------|
Bb-8---------------10-----------------13------------------5----------------|
F--8---------------10-----------------13------------------5----------------|
C--6----------------8-----------------11------------------3----------------|
                               

C------------------------------|
G------------------------------|
Eb-----------------------------|
Bb-2---------------------------|
F--2---------------------------|
C--0---------------------------|


   rhy fig 1 (play 3 times)
C----------------------------------------------------------------------------
G----------------------------------------------------------------------------
Eb---------------------------------------------------------------------------
Bb-----9-----7-----9-----7---9-------9----7----9--------------9----7----9----
F------7-----5-----7-----5---7-------7----5----7--9--10-------7----5----7----
C--0-----------------------------0----------------7---8---0------------------



      end rhy fig 1 
C---------------------------------|
G---------------------------------|
Eb--------------------------------|
Bb-7--9------9----7----9----------|
F--5--7------7----5----7--10--9---|
C--------0-----------------8--7---|


   rhy fig 2 (play 4 times)               end rhy fig 2
C---------------------------------------------------------------------------|
G---------------------------------------------------------------------------|
Eb--------------------------------------------------------------------------|
Bb--------------------------------------------------------------------------|
F-------------------------------------------------------------------3----5--|
C---3h5-5-5--5-5-5-5--3h5-5-5--5-5-5-5--3h5-5-5--5-5-5-5---3----5-----------|

 play fig 1 (2 times)
 play fig 2 (4 times)


  rhy fig 3                   end rhy fig 3         
C------------------------------------------------------------------------|
G------------------------------------------------------------------------|
Eb-----------------------------------------------------------------------|
Bb------------------------------------------------------------------5----|
F--7----------------7----------------7-------------------------5---------|
C-----0-0--0-0-0-0-----0-0--0-0-0-0-----0-0--0-0-0-0---3--\7-------------|



C-------------------|
G-------------------|
Eb------------------|
Bb------------------|
F-------------------|
C--0-0-0-0--0-0-0-0-|


 play fig 1 (2 times)
 play fig 2 (4 times)
 play fig 3 (3 times)


 pick slide (4 bars)   


   rhy fig 4 (play 8 times)
C----------------------------------------------------------------------------
G----------------------------------------------------------------------------
Eb---------------------------------------------------------------------------
Bb---------------------------------------------5-----------------------------
F--7---------------7-----------------------5-------7-----------------------5-
C------0---0---0-------0---0---0---3--\7---------------0---0---0---3--\7-----

                  end rhy fig 4   
C----------------------------------------------------------------|
G----------------------------------------------------------------|
Eb---------------------------------------------------------------|
Bb---5-----------------------------------------------------------|
F--------7---5---------------5-------------7---7-----------------|
C----------------7---6---5---3-------------5---5-----------------|



C---------------------------------------------------------------------------|
G---------------------------------------------------------------------------|
Eb--------------------------------------------------------------------------|
Bb------------------------------------------------------------2-------------|
F--5---5---------7---7---------5---5-----------7---7----------2-------------|
C--3---3---------5---5---------3---3-----------5---5----------0-------------|


 play rhy fig 1 (2 times)


  fig 5 (play 3 times) end fig5   rhy fig 6      end rhy fig 6
C------------------------------|-------------------------------------|
G------------------------------|-------------------------------------|
Eb-----------------------------|-------------------------------------|
Bb-----------------------------|-------------------------------------|
F-----5----4----5----4----5----|-------------------------------------|
C--0--3----2----3----2----3----|-0-0-0-0--0-0-0-0--0-0-0-0--0-0-0-0--|
   ^
 (1st time only)   

 play fig 5 (3 times)
 play fig 6
 play fig 2 (4 times)
 play fig 1 (4 times)


C---------------------------------------------------------------|
G---------------------------------------------------------------|
Eb--------------------------------------------------------------|
Bb-9---------9-9-9-----9-------9-------9-------9----------------|
F--7---------7-7-7-----7-------7-------7-------7----------------|
C---------------------------------------------------------------|


petlica
 
Posty: 100
Dołączył(a): 5 kwi 2009, o 10:35
Lokalizacja: Krk

Re: 24 Radical Questions

Postprzez Mikele » 19 lip 2009, o 16:45

Acid Drinkers - 24 Radical Questions.gp3
autor: shsolo@poczta.fm
(36.99 KiB) Pobrane 165 razy
Obrazek
Avatar użytkownika
Mikele
 
Posty: 5967
Dołączył(a): 7 mar 2006, o 19:33
Lokalizacja: Wrocław i okolice

Re: 24 Radical Questions

Postprzez szowiór666 » 21 lut 2010, o 18:39

Obrazek
szowiór666
 
Posty: 1472
Dołączył(a): 20 kwi 2009, o 22:18
Lokalizacja: KwasLand


Powrót do The State of Mind Report

Kto przegląda forum

Użytkownicy przeglądający ten dział: Brak zidentyfikowanych użytkowników i 1 gość

cron