2B1

2B1

Postprzez Mikele » 9 maja 2009, o 16:48

qbalzuo napisał(a):Macie może taba do 2b1? :P


tak na szybko:

Kod: Zaznacz cały
Acid Drinkers
The State of Mind report
2b1

by Mikele

Intro/main riff:

(E5 grac z tłumieniem)

E||--------------------------|--------------------------|
B||--------------------------|--------------------------|
G||--------------------------|--------------------------|
D||--------------------------|--------------------------|
A||--7s--5-------------------|-----------------2--2--2--|
E||-----------0--6p--5----0--|--3h--5----0--5--0--0--0--|

s - slide
p - pull off
h - hammer on

Zwrotka:

|--------------------------|--------------------------|
|--------------------------|--------------------------|
|--------------------------|--------------------------|
|--------------------------|--------------------------|
|--------------------------|--------------------------|
|--3--0--0--0--0--0--0--0--|--0h-3s-5h-6--6p-5s-3--0--|

Pierwszy takt w 1 powtórzeniu zaczynać od E, kolejne od G, tak jak powyżej

Na refren najpierw przez 2 takty leci E5, później po kolei w ósemkach F#, G, A, B, C, D i E, i na abarot to samo.

W utworze przed solo jako break wykorzystane jest intro do United Suicide Legion, a poza tym cały utwór leci na tych 3 riffach.



I to by było na tyle ;)
Obrazek
Avatar użytkownika
Mikele
 
Posty: 5967
Dołączył(a): 7 mar 2006, o 19:33
Lokalizacja: Wrocław i okolice

1

Postprzez petlica » 12 maja 2009, o 09:15

Kod: Zaznacz cały
ACID DRINKERS
         TWO BE ONE

 Transcribed by Grzegorz Musialik (grg@c.ipa.com.pl)
 Tune down 2 whole steps (low to high C F Bb Eb G C )
 
  fig 1                        end fig 1 
C------------------------------------------------------------------------|
G------------------------------------------------------------------------|
Eb-7---------------------------------------------------------------------|
Bb-7---------------------------------------------------------------------|
F--5---------------------------2----4----5----6----5----6-----7-----8----|
C--5---------------------------0----2----3----4----3----4-----5-----6----|


  fig 2 (play 4 times)               end fig 2
C-------------------------------------------------------------------|
G-------------------------------------------------------------------|
Eb------------------------------------------------------------------|
Bb------------------------------------------------------------------|
F--7--5-----------------------------7-5-----------------------------|
C---------0-6-5---0-3-5---0-6-5---0-------0-6-5---0-3-5---0-5-0-0-0-|


   fig 3         end fig 3
C----------------------------------------|
G----------------------------------------|
Eb---------------------------------------|
Bb---------------------------------------|
F--5--------------------------5----5-----|
C--3-3-3-3--3-3-3-3--3-3-3-3--3----3-----|


   fig 4 (play 2 times)      1,2,3-----------------ż 4---------------------ż
C---------------------------------------------------|-----------------------|
G---------------------------------------------------|-----------------------|
Eb--------------------------------------------------|-----------------------|
Bb--------------------------------------------------|-----------------------|
F--2----------------------------------3--4--3-------|4--3--------4--3-------|
C--0--0--0--0---0--0--0--0---0--3--6-----------6--3-|------6--3--------6--3-|

 play fig 1
 play fig 2 (4 times)
 play fig 3                                     
 play fig 4 (2 times)
 play fig 1
 play fig 2 (2 times)


  (play 4 times)
C-------------------------------------------------------------------------|
G-------------------------------------------------------------------------|
Eb------------------------------------------------------------------------|
Bb-----5-----------5------------5--------5--------------------------------|
F--------------3-------3----4--------5--------5---4---3-------------------|
C--6-------6----------------------------------------------6----3----------|


C-------------------------------------------------------------------------|
G-------------------------------------------------------------------------|
Eb------------------------------------------------------------------------|
Bb-----3-----------3------------3--------3--------------------------------|
F--------------1-------1----2--------3--------3---2---1-------------------|
C--6-------6----------------------------------------------6----3----------|

 play fig 4 (4 times)


C--------------------------------------------------|
G--------------------------------------------------|
Eb-7-----------------------------------------------|
Bb-7-----------------------------------------------|
F--5----------------2---4---5---6---5---6---7---8--|
C-------------------0---2---3---4---3---4---5---6--|


 play fig 2 (4 times)                                     
 play fig 4 (without 4th ending)


C-----------------------------------|
G-----------------------------------|
Eb----------------------------------|
Bb----------------------------------|
F---2---4---5---6---5---6---7---8---|
C---0---2---3---4---3---4---5---6---|


 play fig 2 (3 times)


C-----------------------------------------------------------------------|
G-----------------------------------------------------------------------|
Eb----------------------------------------------------------------------|
Bb-------------------------------------9------7-------------------------|
F---7--5-------------------------------7------5-----8---7---5----2------|
C-----------0--6--5-----0--3--5----0----------------6---5---3----0------|



petlica
 
Posty: 100
Dołączył(a): 5 kwi 2009, o 10:35
Lokalizacja: Krk


Powrót do The State of Mind Report

Kto przegląda forum

Użytkownicy przeglądający ten dział: Brak zidentyfikowanych użytkowników i 1 gość

cron