Pump The Plastic Heart

Pump The Plastic Heart

Postprzez Mikele » 4 sty 2009, o 21:30

Pump the Plastic Heart.gp5
autor: Mikele
(36.11 KiB) Pobrane 206 razy



Kod: Zaznacz cały
Acid Drinkers
The State Of Mind Report
Pump The Plastic Heart

by Mikele

Intro, zwrotki, refreny i większośc utworu:

br - bend and realease
p - interwał

C#||-------------------------|------------------------|-------------------------|---------------------------|
G#||-------------------------|------------------------|-------------------------|---------------------------|
E ||-------------------------|------------------------|-------------------------|---------------------------|
B ||-------------------------|------------------------|-------------------------|---------------------------|
F#||--5--6--7--p--7----5--6--|--7--p--7----5--6--7----|--5--6--7--p--7----5--6--|--7-----5--5br----3--------|
C#||--3--4--5-----5----3--4--|--5-----5----3--4--5----|--3--4--5-----5----3--4--|--5------------------5--3--|

alternatywne zakończenie riffu głównego (przed zwrotkami itd itp):

pbr - pre-bend and realease

takt nr4.                    (wybrzmienie przez dwa kolejne takty)
|---------------------------|-----------------------|------------------------|
|---------------------------|-----------------------|------------------------|
|---------------------------|-----------------------|------------------------|
|----------------3--2~------|-----------------------|------------------------|
|--5pbr----3----------------|-----------------------|------------------------|
|-------------5-------------|-----------------------|------------------------|

Breaki (po refrenach):

(noty na strunie A dla pierwszej gitary, na strunach B i G dla drugiej)

|-----------------------|------------------------|-----------------------|------------------------|
|------------12~--------|--10~-------------------|------------12~--------|--10~-------------------|
|-----------------------|-------------12~--------|-----------------------|-------------12~--------|
|-----------------------|------------------------|-----------------------|------------------------|
|--7~-------------------|------------------------|--6~-------------------|------------------------|
|-----------------------|------------------------|-----------------------|------------------------|

                                                  (dwa ostatnie takty grane na obie gitary, noty 0 grane tercjami)
|-----------------------|------------------------|----------------------------------|---------------------------|
|------------12~--------|--10~-------------------|----------------------------------|---------------------------|
|-----------------------|-------------12~--------|----------------------------------|---------------------------|
|-----------------------|------------------------|--------------------5-------------|--7-------------8---7---5--|
|--5~-------------------|------------------------|--------------------5-------------|--7-------------8---7---5--|
|-----------------------|------------------------|--0--0--0--0--0--0--3----0--0--0--|--5----0--0--0--6---5---3--|

Riffem pod solo jest główny riff, na zakończenie podkładu grane:

|---------------------|-----------------------|
|---------------------|-----------------------|
|--8------7------5----|-----------------------|
|--8------7------5----|-----7------5--6--7----|
|--6------5------3----|-----7------5--6--7----|
|---------------------|-----5------3--4--5----|

Po solo jest lekki break, ale nie ma sensu go rozpisywać, później znów standard zwrotka refren i do domu ;)
Obrazek
Avatar użytkownika
Mikele
 
Posty: 5967
Dołączył(a): 7 mar 2006, o 19:33
Lokalizacja: Wrocław i okolice

1

Postprzez petlica » 13 maja 2009, o 09:03

qbalzuo napisał(a):Swietna robota petlica ;p ile juz wioslujesz?

Początek był bardzo dawno, już nie pamiętam. Wtedy kiedy wyszedł pierwszy numer gazetki Gitara i Bas - roku nie podaję bo z dziadkami się nie będzie cie zadawać :). Później chyba z 8 lat nie dotykałem gitary a ostatnio coś mnie znowu wzieło.

Wrzucę riffy do Pump The Plastic Heart w innym stroju dropped C bo tak mi lepiej brzmi i łatwiej grać. W ogóle większość kawałków z The State Of Mind Report lepiej brzmi w tym stroju, może oprócz United.... który jest w chyba jest standard tuning od Cis.

Pozdr

Kod: Zaznacz cały

Acid Drinkers
The State Of Mind Report
Pump The Plastic Heart

dropped C

by petlica


D|------------------------------|--------------------------------------|
A|------------------------------|--------------------------------------|
F|------------------------------|--------------------------------------|
C|------------------------------|--------------------------------------|
G|--3-4-5--5---3-4-5--5---3-4-5-|--3-4-5--5---3-4-5---3b4---3--1--5--3-|
C|--3-4-5--5---3-4-5--5---3-4-5-|--3-4-5--5---3-4-5---------------5--3-|



D|------------------------------|--------------------------------------|
A|------------------------------|--------------------------------------|
F|------------------------------|--------------------------------------|
C|------------------------------|-------------------------1-0----------|
G|--3-4-5--5---3-4-5--5---3-4-5-|--3-4-5--5---3-4-5-4-3-2--------------|
C|--3-4-5--5---3-4-5--5---3-4-5-|--3-4-5--5---3-4-5-4-3-2--------------|


D|------------------------------|--------------------------------------|
A|------------------------------|--------------------------------------|
F|------------------------------|-6-----5-----3------------------------|
C|------------------------------|-6-----5-----3------------------------|
G|--3-4-5--5---3-4-5--5---3-4-5-|-4-----3-----1-----5------3-4-5-------|
C|--3-4-5--5---3-4-5--5---3-4-5-|-------------------5------3-4-5-------|




  Guitar_1
D|-------------17---------|-15----------13---------|-------------17---------|-15----------13---------|
A|-------------20b22------|-18b20-------16b18------|-------------20b22------|-18b20-------16b18------|
F|------------------------|------------------------|------------------------|------------------------|
C|------------------------|------------------------|------------------------|------------------------|
G|------------------------|------------------------|------------------------|------------------------|
C|------------------------|------------------------|------------------------|------------------------|
 |                        |                        |                        |                        |
 |Guitar_2                |                        |                        |                        |
D|------------------------|------------------------|------------------------|------------------------|
A|------------------------|------------------------|------------------------|------------------------|
F|------------------------|------------------------|------------------------|------------------------|
C|------------------------|------------------------|------------------------|------------------------|
G|-5--5--5--5--5--5--5--5-|-5--5--5--5--5--5--5--5-|-4--4--4--4--4--4--4--4-|-4--4--4--4--4--4--4--4-|
C|------------------------|------------------------|------------------------|------------------------|
 |                        |                        |                        |                        |
 |Guitar_3                |                        |                        |                        |
D|------------------------|------------------------|------------------------|------------------------|
A|------------------------|------------------------|------------------------|------------------------|
F|------------------------|------------------------|------------------------|------------------------|
C|------------------------|------------------------|------------------------|------------------------|
G|------------------------|------------------------|------------------------|------------------------|
C|-0--0--0--0--0--0--0--0-|-0--0--0--0--0--0--0--0-|-0--0--0--0--0--0--0--0-|-0--0--0--0--0--0--0--0-|




  Guitar_1
D|-------------17---------|-15----------13---------|------------------------|------------------------|
A|-------------20b22------|-18b20-------16b18------|------------------------|------------------------|
F|------------------------|------------------------|------------------------|------------------------|
C|------------------------|------------------------|------------------------|------------------------|
G|------------------------|------------------------|------------------------|------------------------|
C|------------------------|------------------------|------------------------|------------------------|
 |                        |                        |                        |                        |
 |Guitar_2                |                        |                        |                        |
D|------------------------|------------------------|------------------------|------------------------|
A|------------------------|------------------------|------------------------|------------------------|
F|------------------------|------------------------|------------------------|------------------------|
C|------------------------|------------------------|--------------3---------|-5-----------6---5---3--|
G|-3--3--3--3--3--3--3--3-|-3--3--3--3--3--3--3--3-|--------------3---------|-5-----------6---5---3--|
C|------------------------|------------------------|--0-0-0-0-0-0-3---0-0-0-|-5----0-0-0--6---5---3--|
 |                        |                        |                        |                        |
 |Guitar_3                |                        |                        |                        |
D|------------------------|------------------------|------------------------|------------------------|
A|------------------------|------------------------|------------------------|------------------------|
F|------------------------|------------------------|------------------------|------------------------|
C|------------------------|------------------------|--------------3---------|-5-----------6---5---3--|
G|------------------------|------------------------|--------------3---------|-5-----------6---5---3--|
C|-0--0--0--0--0--0--0--0-|-0--0--0--0--0--0--0--0-|--0-0-0-0-0-0-3---0-0-0-|-5----0-0-0--6---5---3--|







petlica
 
Posty: 100
Dołączył(a): 5 kwi 2009, o 10:35
Lokalizacja: Krk


Powrót do The State of Mind Report

Kto przegląda forum

Użytkownicy przeglądający ten dział: Brak zidentyfikowanych użytkowników i 1 gość

cron