Maximum Overload

Maximum Overload

Postprzez petlica » 18 lip 2009, o 11:55

Dawno tu nie zaglądałem i tak na szybko dorzucę. pewny tego na 100% nie jestem ale daje radę.
Wsyystkie pojedyncze dzwięki na pustej strunie E(C) tłumione
Kod: Zaznacz cały
Acid Drinkers
The State Of Mind Report
Maximum_Overload

Tunnig Standard C

by petlica

Intro
D|-----------------|------------------|
A|-----------------|------------------|
F|-----------------|------------------|
C|-----------------|------------------|
G|-----5-----8-----|-7---5---7----5h7-|
C|-0-0-3-0-0-6-0-0-|-5-0-3-0-5--0-----|

Verse
D|---------------|---------------|---------------|-----------------|------------------|
A|---------------|---------------|---------------|-----------------|------------------|
F|---------------|---------------|---------------|-----------------|------------------|
C|-2-----2-------|-2-----2-------|-2-----2-------|-----------------|------------------|
G|-2-----2-------|-2-----2-------|-2-----2-------|-----5-----8-----|-7---5---7----5h7-|
C|-0-0-0-0-0-0-0-|-0-0-0-0-0-0-0-|-0-0-0-0-0-0-0-|-0-0-3-0-0-6-0-0-|-5-0-3-0-5--0-----|

Pre-verse                              x3
D|--------------------|------------------|---------------------|------------------|
A|--------------------|------------------|---------------------|------------------|
F|--------------------|------------------|---------------------|------------------|
C|--------------------|-------------5s7--|-/13-13-12-12-/10-10-|---10-10/7--7-7---|
G|-0--0-0-3-0-0-5-0-0-|-6p0-5p0-3p0------|---------------------|------------------|
C|--------------------|------------------|---------------------|----------------0-|


Ref

  Guitar_1
D|----------------|----------------|----------------|-------2-------3---|
A|----------------|----------------|----------------|-----2-------3-----|
F|----------2-----|----------2-----|----------2-----|-4b6-----5b7-------|
C|-4----------4---|-4----------4---|-4----------4-2-|-------------------|
G|-4----2h4-------|-4----2h4-------|-4----2h4-------|-------------------|
C|-2--2---------0-|-2--2---------0-|-2--2-----------|-----------------0-|
 |                |                |                |                   |
 |Guitar_2        |                |                |                   |
D|----------------|----------------|----------------|-------------------|
A|----------------|----------------|----------------|-------------------|
F|----------2-----|----------2-----|----------2-----|-------------------|
C|-4----------4---|-4----------4---|-4----------4-2-|-4--4----5---------|
G|-4----2h4-------|-4----2h4-------|-4----2h4-------|-4--4----5---------|
C|-2--2---------0-|-2--2---------0-|-2--2---------0-|-2--2----3-------0-|





  Guitar_1
D|----------------|----------------|----------------|-------------------|
A|----------------|----------------|----------------|-------------------|
F|----------2-----|----------2-----|----------2-----|-4b6r4p2-5b7-------|
C|-4----------4---|-4----------4---|-4----------4-2-|-------------------|
G|-4----2h4-------|-4----2h4-------|-4----2h4-------|-------------------|
C|-2--2---------0-|-2--2---------0-|-2--2-----------|-------------------|
 |                |                |                |                   |
 |Guitar_2        |                |                |                   |
D|----------------|----------------|----------------|-------------------|
A|----------------|----------------|----------------|-------------------|
F|----------2-----|----------2-----|----------2-----|-------------------|
C|-4----------4---|-4----------4---|-4----------4-2-|-4--4----5---------|
G|-4----2h4-------|-4----2h4-------|-4----2h4-------|-4--4----5---------|
C|-2--2---------0-|-2--2---------0-|-2--2---------0-|-2--2----3---------|



Solo

D|---------------|---------------|---------------|-----------------|------------------|
A|---------------|---------------|---------------|-----------------|------------------|
F|-2-----2-------|-2-----2-------|-2-----2-------|-----------------|------------------|
C|-2-----2-------|-2-----2-------|-2-----2-------|-----5-----8-----|-7---5---7----5h7-|
G|-0-0-0-0-0-0-0-|-0-0-0-0-0-0-0-|-0-0-0-0-0-0-0-|-0-0-3-0-0-6-0-0-|-5-0-3-0-5--0-----|
C|---------------|---------------|---------------|-----------------|------------------|



   No sorrow
D|--------------------|--------------------|--------------------|-------------------|
A|--------------------|--------------------|--------------------|-------------------|
F|--------------------|--------------------|--------------------|-------------------|
C|-4------------------|-4------------------|-4------------------|-4--4----5---------|
G|-4--4-444-444-444---|-4--4-444-444-444---|-4--4-444-444-444---|-4--4----5---------|
C|-2--2-222-222-222-0-|-2--2-222-222-222-0-|-2--2-222-222-222-0-|-2--2----3---------|





Pozdr
petlica
 
Posty: 100
Dołączył(a): 5 kwi 2009, o 10:35
Lokalizacja: Krk

Re: Maximum Overload

Postprzez petlica » 21 lip 2009, o 09:01

Trochę przeedytowałem posta powyżej.
petlica
 
Posty: 100
Dołączył(a): 5 kwi 2009, o 10:35
Lokalizacja: Krk

Re: Maximum Overload

Postprzez kóla » 21 lip 2009, o 14:43

strojenie CGC ale akordy rozpisujesz 355 a nie 555. na pewno powinno tak byc? oczywiscie wiadomo o co chodzi. bardzo dobra robota!
Avatar użytkownika
kóla
 
Posty: 1602
Dołączył(a): 25 lis 2007, o 03:38
Lokalizacja: zary

Re: Maximum Overload

Postprzez petlica » 21 lip 2009, o 14:59

Oczywiście wiadomo o co chodzi mój błąd :)
petlica
 
Posty: 100
Dołączył(a): 5 kwi 2009, o 10:35
Lokalizacja: Krk


Powrót do The State of Mind Report

Kto przegląda forum

Użytkownicy przeglądający ten dział: Brak zidentyfikowanych użytkowników i 1 gość