Hats Off (2 This Lady)

Hats Off (2 This Lady)

Postprzez petlica » 24 kwi 2009, o 09:42

Numer 10 z VVV
Kod: Zaznacz cały
Acid Drinkers
Vile Vicious Vision
Hats Off (2 This Lady)

intro Guitar_1
E|--------------------------|------------------------|-----------10-9-----------|---------------10-9-----|
H|--------------------------|--------------------7-8-|-10~----10------10~---7-8-|10~----10-----------10~-|
G|--------------------------|------------------------|--------------------------|------------------------|
D|--------------------------|------------------------|--------------------------|------------------------|
A|--------------------------|------------------------|--------------------------|------------------------|
E|--------------------------|------------------------|--------------------------|------------------------|

                                                z przesterem
E|--------------------------|------------------------|-----------10-9-----------|---------------10-9-----|
H|------------------10------|---10---------------7-8-|-10~----10------10~---7-8-|10~----10-----------10~-|
G|-7-9-9/11~-----11----7-9~-|-9------7~--------------|--------------------------|------------------------|
D|--------------------------|------9------9-7~-------|--------------------------|------------------------|
A|--------------------------|------------------------|--------------------------|------------------------|
E|--------------------------|------------------------|--------------------------|------------------------|



E|--------------------------|------------------------|
H|------------------10------|---10-------------------|
G|-7-9-9/11~-----11----7-9~-|-9------7~--------------|
D|--------------------------|------9-----9-7--(7h9p7)|
A|--------------------------|------------------------|
E|--------------------------|------------------------|


Guitar_2 akordy pod intro
E|--------------------------|
H|-10--8--7--5--------------|
G|--9--7--6--4--7--5--4--2--|
D|--7--5--4--2--7--5--4--2--|
A|--------------5--3--2--0--|
E|--------------------------|


verse
E|---------------------------------|--------------------------------|
H|---------------------------------|--------------------------------|
G|-9---9---9---9-----7---7---7---7-|6---6---6---6-----4---4---4---4-|
D|---7---7---7---7-5---5---5---5---|--4---4---4---4-2---2---2---2---|
A|---------------------------------|--------------------------------|
E|---------------------------------|--------------------------------|


E|---------------------------------|--------------------------------|
H|---------------------------------|--------------------------------|
G|---------------------------------|----------------2---------------|
D|-7---7---7---7-----5---5---5---5-|4---4---4---4---2---------------|
A|---5---5---5---5-3---3---3---3---|--2---2---2---2-0---------------|
E|---------------------------------|--------------------------------|

ref
E|--------------------------|
H|--------------------------|
G|--------------------------|
D|--------------------------|
A|----7---5~-----5----------|
E|-0----7------7---7-5-3----|


E|--------------------------|
H|--------------------------|
G|--------------------------|
D|----7---5~-----5----------|
A|-0----7------7---7-5-3----|
E|--------------------------|

1st solo
E|---------------------------------|---------------------------------|
H|---------------------------------|---------------------------------|
G|--------12----12-14p12----12-----|--------12-14-12-14p12----12-----|
D|----/14----14----------14----14~-|----/14----------------14----14~-|
A|---------------------------------|---------------------------------|
E|---------------------------------|---------------------------------|


                       (tr picking)
E|--0--19-15--------------------15-|-----19-15-----------------------|
H|-----------17------------(17)----|-----------17--------------------|
G|--------------16-15--(16)--------|--------------16-15--------------|
D|---------------------------------|---------------------------------|
A|---------------------------------|---------------------------------|
E|---------------------------------|---------------------------------|



E|---------------------------------|---------------------------------|--------------------------------|
H|--------------12-13p12----13~----|--------------12-13p12----13~----|-13-13-13-15/17-17-17-15-15-17~-|
G|--------12-14----------14--------|--------12-14----------14--------|--------------------------------|
D|----/14--------------------------|----/14--------------------------|--------------------------------|
A|---------------------------------|---------------------------------|--------------------------------|
E|---------------------------------|---------------------------------|--------------------------------|


2nd solo

E|---------15-------------------------------|
H|-12------15-------------------------------|
G|-14b16--(16)--14b16r14p12----12~----------|
D|-------------------------14~------12h14~--|
A|------------------------------------------|
E|------------------------------------------|

E|-----------------------------------------------------------------|
H|--0--------------------------------------------------------------|
G|--2b4-(4r2b4r2b4)----0-2-2b4r2b4---0-2-2b4r2b4---0-2-------------|
D|-------------------2-------------2-------------2-----2p0---------|
A|-----------------------------------------------------------------|
E|---------------------------------------------------------3p0-----|

E|-----------------------------------------------------------------|
H|-----------------------------------------------------------------|
G|-14-12---------------2-0----------14-12----------------0-2--2~---|
D|-------14-12-------------2-0------------14-12--------------------|
A|-------------15-12-----------3-0--------------15-12--------------|
E|---------------------------------------------------------------5~|


end
E|--------------------------|
H|--------------------------|
G|--------------------------|
D|------9/----------9/------|
A|-2-2--7/-----2-2--7/------|
E|-0-0---------0-0----------|

Ostatnio edytowano 24 kwi 2009, o 12:50 przez petlica, łącznie edytowano 1 raz
petlica
 
Posty: 100
Dołączył(a): 5 kwi 2009, o 10:35
Lokalizacja: Krk

Powrót do Vile Vicious Vision

Kto przegląda forum

Użytkownicy przeglądający ten dział: Brak zidentyfikowanych użytkowników i 1 gość

cron