Strona 1 z 1

Then She Kissed Me

PostNapisane: 24 kwi 2009, o 09:37
przez petlica
Numer 9 z VVV

Kod: Zaznacz cały
Acid Drinkers
Vile Vicious Vision
Then She Kissed Me


Riff A

  Guitar_1&2                                       
E|-----------------------|-----------------------|
H|-----------------------|-----------------------|
G|-----------------------|-----------------------|
D|-----4-5-4~-----4-5-4~-|-----4-5-4~-----4-5-4~-|
A|-/5~--------/5~--------|-/5~--------/5~--------|
E|-----------------------|-----------------------|
          AH                      AH             


E|-----------------------|-----------------------|
H|-----------------------|-----------------------|
G|-----------------------|-----------------------|
D|-----4-5-4~-----4-5-4~-|-----4-5-4~-----4-5-4~-|
A|-/5~--------/5~--------|-/5~--------/5~--------|
E|-----------------------|-----------------------|
          AH                      AH



Riff B

  Guitar_1&2
E|---------------------|-----------------------------|
H|---------------------|-----------------------------|
G|---------------------|-------------3-----3-----3---|
D|----4-5~-4----4---4--|----4-5~-4-----5-4---5-4---5-|
A|-/5--------/5--------|-/5--------------------------|
E|----------------5----|-----------------------------|



E|---------------------|-----------------------------|
H|---------------------|-----------------------------|
G|---------------------|-------------3-----3-----3---|
D|----4-5~-4----4---4--|----4-5~-4-----5-4---5-4---5-|
A|-/5--------/5--------|-/5--------------------------|
E|----------------5----|-----------------------------|



E|---------------------|-----------------------------|
H|---------------------|-----------------------------|
G|---------------------|-------------3-----3-----3---|
D|----4-5~-4----4---4--|----4-5~-4-----5-4---5-4---5-|
A|-/5--------/5--------|-/5--------------------------|
E|----------------5----|-----------------------------|



E|---------------------|-----------------------------|
H|---------------------|-----------------------------|
G|---------------------|-----------------------------|
D|----4-5~-4----4---4--|----4-5~-4---7---------------|
A|-/5--------/5--------|-/5----------7---------------|
E|----------------5----|-------------5---------------|


1st Verse
  Guitar_1                                                             x2
E|-----------------|-----------------|-----------------|-----------------|
H|-----------------|-----------------|-----------------|-----------------|
G|-----------------|-----------------|-----------------|-3-----3-----3---|
D|-----------------|-----------------|-----------------|---5-4---5-4---5-|
A|-5-5-5-5-5-5-5-5-|-----------------|-5-5-5-5-5-5-5-5-|-----------------|
E|-----------------|-5-5-5-5-5-5-5-5-|-----------------|-----------------|
 |                 |                 |                 |                 |
 |Guitar_2         |                 |                 |                 |
E|-----------------|-----------------|-----------------|-----------------|
H|-----------------|-----------------|-----------------|-----------------|
G|-----------------|-----------------|-----------------|-----------------|
D|-7-7-7-7-7-7-7-7-|-----------------|-7-7-7-7-7-7-7-7-|-8-8-8-8-8-8-8-8-|
A|-5-5-5-5-5-5-5-5-|-7-7-7-7-7-7-7-7-|-5-5-5-5-5-5-5-5-|-6-6-6-6-6-6-6-6-|
E|-----------------|-5-5-5-5-5-5-5-5-|-----------------|-----------------|
  pm.....................................................................


  Guitar_1
E|---------------------|---------------------|
H|---------------------|---------------------|
G|---------------------|---------------------|
D|--------------4-5-4--|--------------4-5-4--|
A|-----2-3-2-/5--------|-----2-3-2-/5--------|
E|-/3~-----------------|-/3~-----------------|
 |                     |                     |
 |Guitar_2             |                     |
E|---------------------|---------------------|
H|---------------------|---------------------|
G|-----4-5-4-----------|-----4-5-4-----------|
D|-/5~----------4-5-4--|-/5~----------4-5-4--|
A|-----------/5--------|-----------/5--------|
E|---------------------|---------------------|


  Guitar_1                                                               
E|-----------------|-----------------|-----------------|-----------------|
H|-----------------|-----------------|-----------------|-----------------|
G|-----------------|-----------------|-----------------|-3-----3-----3---|
D|-----------------|-----------------|-----------------|---5-4---5-4---5-|
A|-5-5-5-5-5-5-5-5-|-----------------|-5-5-5-5-5-5-5-5-|-----------------|
E|-----------------|-5-5-5-5-5-5-5-5-|-----------------|-----------------|
 |                 |                 |                 |                 |
 |Guitar_2         |                 |                 |                 |
E|-----------------|-----------------|-----------------|-----------------|
H|-----------------|-----------------|-----------------|-----------------|
G|-----------------|-----------------|-----------------|-----------------|
D|-7-7-7-7-7-7-7-7-|-----------------|-7-7-7-7-7-7-7-7-|-8-8-8-8-8-8-8-8-|
A|-5-5-5-5-5-5-5-5-|-7-7-7-7-7-7-7-7-|-5-5-5-5-5-5-5-5-|-6-6-6-6-6-6-6-6-|
E|-----------------|-5-5-5-5-5-5-5-5-|-----------------|-----------------|
  pm.....................................................................





2nd Verse                                                               

  Guitar_1                                                             x2
E|-----------------|-----------------|-----------------|-----------------|
H|-----------------|-----------------|-----------------|-----------------|
G|-----------------|-----------------|-----------------|-3-----3-----3---|
D|-----------------|-----------------|-----------------|---5-4---5-4---5-|
A|-5-5-5-5-5-5-5-5-|-----------------|-5-5-5-5-5-5-5-5-|-----------------|
E|-----------------|-5-5-5-5-5-5-5-5-|-----------------|-----------------|
 |                 | Pm............. | ............... |                 |
 |Guitar_2         |                 |                 |                 |
E|-----------------|-----------------|-----------------|-----------------|
H|-----------------|-----------------|-----------------|-----------------|
G|-----------------|-----------------|-----------------|-----------------|
D|-7-7-7-7-7-7-7-7-|-----------------|-7-7-7-7-7-7-7-7-|-8-8-8-8-8-8-8-8-|
A|-5-5-5-5-5-5-5-5-|-7-7-7-7-7-7-7-7-|-5-5-5-5-5-5-5-5-|-6-6-6-6-6-6-6-6-|
E|-----------------|-5-5-5-5-5-5-5-5-|-----------------|-----------------|
  pm.....................................................................


  Guitar_1
E|---------------------|---------------------|
H|---------------------|---------------------|
G|---------------------|---------------------|
D|--------------4-5-4--|--------------4-5-4--|
A|-----2-3-2-/5--------|-----2-3-2-/5--------|
E|-/3~-----------------|-/3~-----------------|
 |                     |                     |
 |Guitar_2             |                     |
E|---------------------|---------------------|
H|---------------------|---------------------|
G|-----4-5-4-----------|-----4-5-4-----------|
D|-/5~----------4-5-4--|-/5~----------4-5-4--|
A|-----------/5--------|-----------/5--------|
E|---------------------|---------------------|


  Guitar_1                                                             x2
E|-----------------|-----------------|-----------------|-----------------|
H|-----------------|-----------------|-----------------|-----------------|
G|-----------------|-----------------|-----------------|-3-----3-----3---|
D|-----------------|-----------------|-----------------|---5-4---5-4---5-|
A|-5-5-5-5-5-5-5-5-|-----------------|-5-5-5-5-5-5-5-5-|-----------------|
E|-----------------|-5-5-5-5-5-5-5-5-|-----------------|-----------------|
 |                 | Pm............. | ............... |                 |
 |Guitar_2         |                 |                 |                 |
E|-----------------|-----------------|-----------------|-----------------|
H|-----------------|-----------------|-----------------|-----------------|
G|-----------------|-----------------|-----------------|-3-----3---------|
D|-7-7-7-7-7-7-7-7-|-----------------|-7-7-7-7-7-7-7-7-|---5-4---5-4-----|
A|-5-5-5-5-5-5-5-5-|-7-7-7-7-7-7-7-7-|-5-5-5-5-5-5-5-5-|-------------7---|
E|-----------------|-5-5-5-5-5-5-5-5-|-----------------|-------------5---|
  pm.....................................................................



  Guitar_1&2
E|-----------------|-----------------|-----------------|-----------------|
H|-----------------|-----------------|-----------------|-----------------|
G|-3-----3---------|-3-----3---------|-3-----3---------|-----------------|
D|---5-4---5-4-----|---5-4---5-4-----|---5-4---5-4-----|-----------------|
A|-------------7---|-------------7---|-------------9~--|-(9)-------------|
E|-------------5---|-------------5---|-------------7~--|-(7)-------------|
   pm.........       pm.........       pm.........



Bridge

  Guitar_1&2
E|-----------------|-----------------|-----------------|-----------------|
H|-----------------|-----------------|-----------------|-----------------|
G|-----------------|-----------------|-----------------|-----------------|
D|-----------------|-----------------|-----------------|-----------------|
A|-5-5-5-5-5-5-5-5-|-5-5-5-5-5-5-5-5-|-2-2-2-2-2-2-2-2-|-7-7-7-7-7-7-7-7-|
E|-3-3-3-3-3-3-3-3-|-3-3-3-3-3-3-3-3-|-0-0-0-0-0-0-0-0-|-5-5-5-5-5-5-5-5-|
  pm....................................................................



Ending
slow tempo

  Guitar_1                                       
E|-----------------------|-----------------------|
H|-----------------------|-----------------------|
G|-----------------------|-----------------------|
D|-----4-5-4~-----4-5-4~-|-----4-5-4~------------|
A|-/5~--------/5~--------|-/5~--------/5~---5----|
E|-----------------------|----------------5---5~-|
          AH                      AH             


E|-----------------------|-----------------------|
H|-----------------------|-----------------------|
G|-----------------------|-----------------------|
D|-----4-5--6--7---------|-----------------------|
A|-/5~-------------4--5--|-5555-5555-5555-55555--|
E|-----------------------|-----------------------|



to było dosyć pospiesznie ale w sumie prosty numer
pozdr