Striptease

Striptease

Postprzez petlica » 19 lip 2009, o 10:16

Kilka riffów.
Kod: Zaznacz cały
Acid Drinkers
Striptease
Striptease

by petlica


intro
E|--------------------|--------------------|
H|--------------------|--------------------|
G|--------------------|--------------------|
D|-----------------5~-|--------------------|
A|-0-2-4-5~--0-5-7----|-0-2-4-5~--0--0-0-0-|
E|--------------------|--------------------|


Verse                                                       x2
E|--------------|--------------|--------------|--------------|
H|--------------|--------------|--------------|--------------|
G|--------------|--------------|--------------|--------------|
D|--------------|--------------|--------------|--------------|
A|----333444333-|-222333111222-|----333444333-|-11-----------|
E|-333----------|--------------|-333----------|---3333333333-|


E|------------------|------------------------|------------------|------------------|
H|------------------|------------------------|------------------|------------------|
G|------------------|----5--6--5--4--5--3--4-|------------------|------------------|
D|-3----------------|-5--5--6--5--4--5--3--4-|------------------|-2----------------|
A|-3----------------|-5--3--4--3--2--3--1--2-|-3----------------|-2----------------|
E|-1--1-1-1-1-1-1-1-|-3----------------------|-1--1-1-1-1-1-1-1-|-0----------------|

Pre-Ref
E|------------------|------------------|------------------|------------------|
H|------------------|------------------|------------------|------------------|
G|------------------|------------------|------------------|------------------|
D|-2----------------|------------------|------------------|-7/---------------|
A|-2----------------|-3----------------|-5----------------|-5/---------------|
E|-0--0-0-0-0-0-0-0-|-1--1-1-1-1-1-1-1-|-3--3-3-3-3-3-3-3-|------------------|


Ref
E|--------------|------------------|
H|--------------|------------------|
G|-----9---9-9--|------------------|
D|-----8---8-8--|-8--8---5---5-5-5-|
A|-----7---7-7--|-8--8---5---5-5-5-|
E|-0-----0------|-6--6---3---3-3-3-|



E|------------------|----------------|
H|------------------|----------------|
G|------------------|-7-5-7---5-7-5--|
D|------------------|-7-5-7---5-7-5--|
A|-0000000000000000-|----------------|
E|------------------|----------------|
petlica
 
Posty: 100
Dołączył(a): 5 kwi 2009, o 10:35
Lokalizacja: Krk

Powrót do Strip Tease

Kto przegląda forum

Użytkownicy przeglądający ten dział: Brak zidentyfikowanych użytkowników i 1 gość

cron