Zorba

Zorba

Postprzez kóla » 3 cze 2008, o 22:26

riffy do ziomasa super, tylko jeden akord w refrenie chyba nie jest potrzebny. co do interlude to jakos mi nie wychodzi :) ale to pewnie moja wina, a nie taba Twojego. obiecana Zorba:

Kod: Zaznacz cały
Acid Drinkers
Dirty Money, Dirty Tricks
Zorba (nie mylic z ziobro)

by kóla


|-----------------|-----------------|-----------------|-----------------|
|-----------------|-----------------|-----------------|-----------------|
|-----------------|-----------------|-----------------|-----------------|
|-----------------|-5---7---8---7---|-----------------|-----------------|
|--00000000-------|-3---5---6---5---|--00000000-------|--00000000-------|
|-----------------|-----------------|-----------------|-----------------|



|-----------------|-----------------|-----------------|-----------------|
|-----------------|-----------------|-----------------|-----------------|
|-----------------|-----------------|-2---------------|-----------------|
|--5---7---8---7--|--5---3----------|-2---------------|-----------------|
|--3---5---6---5--|--3---1---0---1--|-0---------------|-----------------|
|-----------------|-----------------|-----------------|-----------------|
Avatar użytkownika
kóla
 
Posty: 1602
Dołączył(a): 25 lis 2007, o 03:38
Lokalizacja: zary

Powrót do Dirty Money, Dirty Tricks

Kto przegląda forum

Użytkownicy przeglądający ten dział: Brak zidentyfikowanych użytkowników i 1 gość