Ziomas

Ziomas

Postprzez Mikele » 3 cze 2008, o 20:35

Ja grałem, riffy cacy :)
Wklejaj Zorbę, niech no ja to ze swoją wizją skonfrontuję ;)

Kod: Zaznacz cały
Acid Drinkers
Dirty Money, Dirty Tricks
Ziomas

by Mikele

Intro
                  a.f.                   PM------|                 a.f.             
||-----------------------|------------------------|-----------------------|
||-----------------------|------------------------|-----------------------|
||-----------------------|------------------------|-----------------------|
||-----------------------|------------------------|-----------------------|
||----------------3------|------------------------|----------------3------|
||--5----0--3--5---------|--5----3--5----0--0--0--|--5----0--3--5---------|

                bend and release                                         
-----------------------|
-----------------------|
-----------------------|
-----------------------|
-----------------------|
--5--0--2--3----3------|

Zwrotka
                                                               
|------------------------|-----------------------|-------------------|------------------|
|------------------------|-----------------------|-------------------|------------------|
|------------------------|-----------------------|-------------------|------------------|
|------------------------|-----------------------|-------------------|------------------|
|------------------------|----------------2------|--2----------------|------------------|
|--3----0--2--3----0--2--|--3----0--2--3---------|--0----------------|------------------|


                                                               
|------------------------|-----------------------|-------------------|------------------|
|------------------------|-----------------------|-------------------|------------------|
|------------------------|-----------------------|-------------------|------------------|
|------------------------|-----------------------|--2----------------|------------------|
|------------------------|----------------2------|--0----------------|------------------|
|--3----0--2--3----0--2--|--3----0--2--3---------|-------------------|------------------|


Ref.
                                                         
|-----------------------------|----------------------------|
|-----------------------------|----------------------------|
|-----------------------------|----------------------------|
|--9---------10--9---------9--|--7---------7--5------------|
|--9---------10--9---------9--|--7---------7--5------------|
|--7--0-0-0--8---7--0-0-0--7--|--5--0-0-0--5--3--0-0--0-0--|


                                                   
|-----------------------------|--------------------|
|-----------------------------|--------------------|
|-----------------------------|--------------------|
|--9---------10--9---------9--|--7--------5--------|
|--9---------10--9---------9--|--7--------5--------|
|--7--0-0-0--8---7--0-0-0--7--|--5--------3--------|

Interludium

 riff 1                               riff 2                                                                             
|------------------------------------|-------------------------------------||
|------------------------------------|-------------------------------------||
|------------------------------------|-------------------------------------||
|-----2--1--------1----------0--1----|-------------------------------------||
|-----------2--3-------1--2----------|--------------1-----------------1----||
|--0---------------------------------|--2--0--2--3-----0--2--0--2--3-------||


Jakby mi kto te riffy na interludium sprawdził, czy są cacy byłoby dobrze. Reszta musi grać. Podkład pod solówkę leci riffem ze zwrotki, bicie róbta ze słuchu, mniej więcej w połowie sola jest riff z Intro, najpierw w tonacji E, później w A, na ostatniej zwrotce jest thrashowe bicie ale riff ten sam, co wcześniej. No, bawcie się dobrze dziubaski 8)
Obrazek
Avatar użytkownika
Mikele
 
Posty: 5967
Dołączył(a): 7 mar 2006, o 19:33
Lokalizacja: Wrocław i okolice

Powrót do Dirty Money, Dirty Tricks

Kto przegląda forum

Użytkownicy przeglądający ten dział: Brak zidentyfikowanych użytkowników i 1 gość